Song name
# A B C D E F G H I J K L M N O P Q R S T U V W X Y Z

Closer 2 Closure - Heartache Hotel tab

eadgbd capo 3 fret    NOTE: letters a b c d e f g are not referring to chord names.
the high D rings throughout whole song basically
  a            b        c              d
D|-0-----------0-|  D|---------------------|
b|-0-----------0-|  b|---------------------|
g|-0-----------0-|  g|-2s/4s/2p0-----------|
d|-2-----------2-|  d|-------------------0-|
a|-3-----------2-|  a|---------------------|
e|-0-----------0-|  e|----------------0h3--|
Hey this      And this
feels a lot   one is just
like a        Em!
Cm chord..

this part goes a, b, a, b, c. a, b, a, b, d. right?

Somewhere along this chord comes in..
but of course, they're doing something more like ..
this W = whole note or 4 beats h = halfa..
or 2 in this case "strums" works for me
                                     Last riff.. the outro!
   e          f           a   g
D|--------W h h h h-------0---0-------------------------------------0--|-0----|
b|-1------3p1p0h1p0-------0---0--------------------------------------0-|--0---|
g|-0------0-0-0-0-0-------0---0------------------2s/4-2-0-2-0------0---|0-----|
d|-2------2-2-2-2-2-------2---4-----------0h4s/5-------------4p0--2-2---------|
a|------------------------3---5----------------------------------3------------|
e|------------------------0---0?-------0h3------------------------------------|
                  a makes a comeback played a few time then goes onto g play with them, 
they go back and forth a few times


"Yous cans do it!" Swisgaar Skwigelf
Tap to rate this tab
# A B C D E F G H I J K L M N O P Q R S T U V W X Y Z