Song name
# A B C D E F G H I J K L M N O P Q R S T U V W X Y Z

Closer 2 Closure - Jesus In The Southern Sky tab

e|--0----0----0----0----0----0----0-----------|
B|--0----0----0----0----0----0----0-----------|
G|--9----9----6----4----2----4----9-----------|
D|--9----9----6----4----2----4----9-----------|
A|--7----6----4----2----0----0----0-----------|
E|--0----0----0----0----0----0----0-----------|

e|--0----0----0----0----0----0----0-----------|
B|--0----0----0----0----0----0----0-----------|
G|--9----9----6----4----2----4----2-----------|
D|--9----9----6----4----2----4----2-----------|
A|--7----6----4----2----0----0----0-----------|
E|--0----0----0----0----0----0----0-----------|

Jesus I can see you in southern sky
When the clouds part and the sun is shinning through
Jesus still you feel me when our worlds collide
And if I have nothing at least I still have you

Jesus do you feel me when I'm calling out
When I'm asking you to be all that I need
Jesus help me understand that what I want
May not be what I need

e|--0----0----0----0----0----0----0----0----0----0---|
B|--0----0----0----0----0----0----0----0----0----0---|
G|--6----2----4----2----6----9----9----6----4----2---|
D|--6----2----4----2----6----9----9----6----4----2---|
A|--4----0----2----0----4----6----7----4----2----0---|
E|--0----0----0----0----0----0----0----0----0----0---|

Five miles away from, so far away from, all we know, all we know
We're five miles away from, we're so far away from, all we know, all we know

e|--0----0----0----0---0---|
B|--0----0----0----0---0---|
G|--2----4----2----6---4---|
D|--2----4----2----6---4---|
A|--0----0----0----4---2---|
E|--2----4----0----0-------|

Five miles away from, so far away from, all we know, all we know (repeat)

Jesus falling from the sky yeah your picking me up
I see your love falling down and yeah your lifting me up
Your all I know, Your all I know (repeat)

Jesus falling from the ground your picking me up
Yeah Jesus falling down and now you're picking me up
You're all I know, You're all I know
Falling from the ground, you're lifting me up, yeah you're lifting me up
You're all I know, .. Jesus I can see you in the southern sky
Tap to rate this tab
 
# A B C D E F G H I J K L M N O P Q R S T U V W X Y Z