Song name
# A B C D E F G H I J K L M N O P Q R S T U V W X Y Z

Closer To Closure - You Saved Me Under A Cascade Of Stars tab

This was tabbed completely by ear. It sounds very close to the actual song. Just listen 
to the song for strumming patterns etc. This is a great song, so have fun!


Intro:

E|--------------------------------------------------------------------------|
B|---3-------3/5\3----3------------------3--------3/5\3-----3---------------|
G|-----------------------7-5-4\2-2/4-4------------------------5-4-2^-2h4p2--|
D|--5--5/7-5---------5------------------5---5/7-5----------5----------------|
A|-3-----------------------------------3------------------------------------|
D|------------------0-------------------------------------0-----------------|


Verse 1:

E|--------------------------------------------------------------------------|
B|---3-------3/5\3----3------------------3--------3/5\3-----3---------------|
G|-----------------------7-5-4\2-2/4-4------------------------5-4-2^--------|
D|--5--5/7-5---------5------------------5---5/7-5----------5----------------|
A|-3-----------------------------------3------------------------------------|
D|------------------0-------------------------------------0-----------------|

E|-0--------0--------0--------0---------------------------------------------|
B|-0--------5--------0--------7---------------------------------------------|
G|-0--------0--------0--------0---------------------------------------------| x2
D|-5--------5--------5--------9---------------------------------------------|
A|-3--------7--------3-------10---------------------------------------------|
D|----------0---------------------------------------------------------------|


Pre-Chorus:

E|-0------------------------0-----------------------------------------------|
B|-0------------------------7-----------------------------------------------|
G|-0------------------------0-----------------------------------------------| x3
D|-5------------------------9-----------------------------------------------|
A|-3-----------------------10-----------------------------------------------|
D|--------------------------------------------------------------------------|

E|-0------------------------------------------------------------------------|
B|-0------------------------------------------------------------------------|
G|-0-----------12-12-12-11-11-7-7-7-9-9-9-9-9-9-9-9-------------------------|
D|-5------------------------------------------------------------------------|
A|-3-----------10-10-10-9--9--5-5-5-7-7-7-7-7-7-7-7-------------------------|
D|--------------------------------------------------------------------------|


Chorus:

E|-0------------------------0-----------------------------------------------|
B|-0------------------------7-----------------------------------------------|
G|-0------------------------0-----------------------------------------------| x4
D|-5------------------------9-----------------------------------------------|
A|-3-----------------------10-----------------------------------------------|
D|--------------------------------------------------------------------------|


Verse 2:

E|--------------------------------------------------------------------------|
B|---3-------3/5\3----3------------------3--------3/5\3-----3---------------|
G|-----------------------7-5-4\2-2/4-4------------------------5-4-2^-2h4p2--|
D|--5--5/7-5---------5------------------5---5/7-5----------5--------------0-|
A|-3-----------------------------------3------------------------------------|
D|------------------0-------------------------------------0-----------------|

E|--------------------------------------------------------------------------|
B|---3-------3/5\3----3------------------3--------3/5\3-----3---------------|
G|-----------------------7-5-4\2-2/4-4------------------------5-4-2^--------|
D|--5--5/7-5---------5------------------5---5/7-5----------5----------------|
A|-3-----------------------------------3------------------------------------|
D|------------------0-------------------------------------0-----------------|

E|-0--------0--------0--------0---------------------------------------------|
B|-0--------5--------0--------7---------------------------------------------|
G|-0--------0--------0--------0---------------------------------------------| x2
D|-5--------5--------5--------9---------------------------------------------|
A|-3--------7--------3-------10---------------------------------------------|
D|----------0---------------------------------------------------------------|


Pre-Chorus:

E|-0------------------------0-----------------------------------------------|
B|-0------------------------7-----------------------------------------------|
G|-0------------------------0-----------------------------------------------| x3
D|-5------------------------9-----------------------------------------------|
A|-3-----------------------10-----------------------------------------------|
D|--------------------------------------------------------------------------|

E|-0------------------------------------------------------------------------|
B|-0------------------------------------------------------------------------|
G|-0-----------12-12-12-11-11-7-7-7-9-9-9-9-9-9-9-9-------------------------|
D|-5------------------------------------------------------------------------|
A|-3-----------10-10-10-9--9--5-5-5-7-7-7-7-7-7-7-7-------------------------|
D|--------------------------------------------------------------------------|


Chorus:

E|-0------------------------0-----------------------------------------------|
B|-0------------------------7-----------------------------------------------|
G|-0------------------------0-----------------------------------------------| x4
D|-5------------------------9-----------------------------------------------|
A|-3-----------------------10-----------------------------------------------|
D|--------------------------------------------------------------------------|


End On:

E|--0--|
B|--0--|
G|--0--|
D|--5--|
A|--3--|
D|-----|
Tap to rate this tab
 
# A B C D E F G H I J K L M N O P Q R S T U V W X Y Z