Song name
# A B C D E F G H I J K L M N O P Q R S T U V W X Y Z

Closure In Moscow - Heres To Entropy tab

Artist: Closure In Moscow
Song: Here's to Entropy
Album: The Penance and the Patience
Tabbed by: Zapfire
Email: Steveon1413@yahoo.com

So i discovered the part to this song last night while just fooling around. I know alot 
people are looking for these tabs so I decided I'd write down what I have so far and 
time continue to update as I discover more.

Drop D Tuning

Intro- Manny
e|---------------------------------|---------------------------------|
B|---------------------------------|---------------------------------|
G|---------------------------------|---------------------------------|
D|---------------------------------|---------------------------------|
A|---------------------------------|---------------------------------|
D|-8-8-8-7-7-7-5-5-5-7-7-7-8-8-7-7-|-2-2-2-2-2-2-2-2-3-3-3-5-5-5-3-3-|

e|---------------------------------|-----------------------------------|
B|---------------------------------|-----------------------------------|
G|---------------------------------|-----------------------------------|
D|---------------------------------|-----------------------------------|
A|---------------------------------|-----------------------------------|
D|-5-5-5-5-5-5-5-5-7-7-7-7-7-7-7-7-|-3-2-0-3-2-0-0-0-0-3-2-0-3-2-3-3-3-|

Verse- Manny
e|--------------------------------------------|
B|--------------------------------------------|
G|--------------------------------------------|
D|--------------------------------------------|
A|-7-7-----------------7-7--------------------|
D|-----8-8-7-7-7-5-5-5-----8-8-7-7-7-10-10-10-|

e|------------------------------|
B|------------------------------|
G|------------------------------|
D|------------------------------|
A|-9-9------------------9-9-----|
D|-----8-8-7-7-7-5-5-5------8-8-|

Working on rest of verse!

Chorus- Manny (these are the notes, it is tremolo picked)
e|-----------|-----------|------------|------------|
B|-----------|-----------|------------|------------|
G|-----------|-----------|------------|------------|
D|-----------|-----------|------------|------------|
A|-----------|-----------|------------|------------|
D|-8-7-6-7-6-|-8-7-6-7-6-|-10-8-7-8-7-|-10-8-7-8-7-|

Breakdown
e|--------------------------|
B|--------------------------|
G|--------------------------|
D|--------------------------|
A|-0-0--0-0----0-0--0-0-0-0-|
D|-0-0--0-0----0-0--0-0-0-0-|
   x x  x x    x x  x x x x

Im working on the rest!
Tap to rate this tab
# A B C D E F G H I J K L M N O P Q R S T U V W X Y Z