Song name
# A B C D E F G H I J K L M N O P Q R S T U V W X Y Z

Closure In Moscow - Pony Acoustic tab

tabbed by: doppleganger78

THE VIDEO I USED...
http://www.youtube.com/watch?v=ESmpH74l3KY

these are just the chords i use...they are funner and sound better...
He does a whole bunch of different chords for the part right before the he (the 
sings...i couldnt figure them out...


d#|-0-(0)-0-x-x-x-x-0-0-x-0-0-x-0-(0)-0-x-x-x-x-0-0-x------|
A#|-1-(1)-1-x-x-x-x-1-1-x-0-0-x-1-(1)-1-x-x-x-x-1-1-x------|
F#|-2-(2)-2-x-x-x-x-2-2-x-7-7-x-0-(0)-0-x-x-x-x-0-0-x------|
C#|-2-(2)-2-x-x-x-x-2-2-x-7-7-x-2-(2)-2-x-x-x-x-2-2-x-5-5--|
G#|-0-(0)-0-x-x-x-x-0-0-x-5-5-x-3-(3)-3-x-x-x-x-3-3-x-5-5--|
C#|---------x-x-x-x-----x-----x---------x-x-x-x-----x-5-5--|

d#|-0-0-0-0--|
A#|-1-3-1-1--|
F#|-2-4-2-0--|
C#|-3-5-2-2--|
G#|-3-5-0-3--|
C#|-3-5------|
Tap to rate this tab
 
# A B C D E F G H I J K L M N O P Q R S T U V W X Y Z