Song name
# A B C D E F G H I J K L M N O P Q R S T U V W X Y Z

Closure In Moscow - Dulcinea Acoustic tab

tabbed by: doppleganger78

I used this video for it...
http://www.youtube.com/watch?v=7E42D6zGzWM

its a whole bar chord with hammers and pull offs, 
so old the deep notes through the whole thing...

d#|-----------------4----------------------------------------------------|
A#|-----------------5----------------------------------------10-p9-------|
F#|----------6p4-h6---6-------------9-------------------9/11-------9/11--|
C#|-4-6h7-7-------------7/9-----------11---11--/9-7-9p7------------------|
G#|-4-----4--------(4)------0-7/9-------(9)------------------------------|
C#|-4-----4--------(4)------0-----0------0-------------------------------|
  
 lead riff...
d#|------------------------------------|
A#|-9-10-12-12/14--12--9h10p9----------|
F#|---------------------------11-9~h9--|
C#|------------------------------------|
G#|------------------------------------|
C#|------------------------------------|

d#|------------------------/12--------------|
A#|-9-10-12-12h14p12p10--------10-12-12/14--|
F#|---------------------11------------------|
C#|-----------------------------------------|
G#|-----------------------------------------|
C#|-----------------------------------------|
Tap to rate this tab
# A B C D E F G H I J K L M N O P Q R S T U V W X Y Z