Song name
# A B C D E F G H I J K L M N O P Q R S T U V W X Y Z

Closure In Moscow - A Night At The Spleen tab

I'm 99% sure the album is recorded in a different tuning but I haven't worked on
out the entire album so I tabbed this solo in standard. I'm fairly sure this tab is accurate
for the quick trill-pull-off part. I couldn't quite figure out the note but pulling off 
the open G note seems to fit nicely.

e|-18b20--18b20v---17h18p17p15----15---------------------------------------------------------|
B|-----------------------------18----15v-----------18-------------18-------------18----------|
G|-------------------------------------------17h19----19v---17h19----19v---17h19----19v------|
D|-------------------------------------------------------------------------------------------|
A|-------------------------------------------------------------------------------------------|
E|-------------------------------------------------------------------------------------------|

e|-------------------------------------------------------------------------------------------|
B|-------------------------------------------------------------------------------------------|
G|-17h19p17h0-15h17p15p0-14h15p14p0-12h14p12p0-12v---------15-(17)pb19r17--15--17b19-17b19---|
D|---------------------------------------------------15h17-----------------------------------|
A|-------------------------------------------------------------------------------------------|
E|-------------------------------------------------------------------------------------------|

e|--------------------------------------------------------------------20-20-20/22------------|
B|----------------20p15-18p15-------20p15-18p15----------------------------------------------|
G|--15--15vvv-----------------17p15-------------17p15--17b19-17vv-----17-17-17/19------------|
D|-------------------------------------------------------------------------------------------|
A|-------------------------------------------------------------------------------------------|
E|-------------------------------------------------------------------------------------------|
Tap to rate this tab
# A B C D E F G H I J K L M N O P Q R S T U V W X Y Z