Song name
# A B C D E F G H I J K L M N O P Q R S T U V W X Y Z

Clou - Island Sun tab

Tabbed by:Bizzy18241
Tuning: standart

This is my first tab.Im not sure if it is 100 % but it sounds good.
  
Intro:
1.guitar (1:37)
E -----------------------------------------------------------------|| repeat.
B ---------6----6----6-----6---6--6------6----6---6----6----6--8---||
G -------------------------------------7----7----------------------||
D ------8----8----------8---8--------8----8----8-----8----8--------||
A ----8----8----8-----6---6---6--------------------6----6---6------||
E -----------------------------------------------------------------||


 2.guitar (o:45) start play:Make your peace at first....
E ---------------------------------------------------|| repeat.
B -15-15-15-15-15-15-15-15-13-13-13-13-13-13-13-13---||
G ---------------------------------------------------||
D ---------------------------------------------------||
A ---------------------------------------------------||
E ---------------------------------------------------||

E ---------------------------------------------------||
B -11-11-11-11-11-11-11-11-15-15-15-13-13-11-11------||
G ---------------------------------------------------||
D ---------------------------------------------------||
A ---------------------------------------------------||
E ---------------------------------------------------||

CHORUS: (1:12)
E ------------------------------------------xx---|| 
B ------------------------------------------xx---||
G ------------------------------------------xx---||
D --333333333-555555555---------------------xx---||
A --333333333-555555555-555555555-666666666-xx6--||
E --111111111-333333333-555555555-666666666-xx6--||

E ------------------------------------------||
B ------------------------------------------||
G ------------------------------------------||
D --333333333-555555555---------------------||
A --333333333-555555555-555555555-666666666-||
E --111111111-333333333-555555555-666666666-||

1.guitar (1:37)
E -----------------------------------------------------------------|| repeat.
B ---------6----6----6-----6---6--6------6----6---6----6----6--8---||
G -------------------------------------7----7----------------------||
D ------8----8----------8---8--------8----8----8-----8----8--------||
A ----8----8----8-----6---6---6--------------------6----6---6------||
E -----------------------------------------------------------------||

2.guitar (2:19)
E ---------------------------------------------------|| repeat.
B -15-15-15-15-15-15-15-15-13-13-13-13-13-13-13-13---||
G ---------------------------------------------------||
D ---------------------------------------------------||
A ---------------------------------------------------||
E ---------------------------------------------------||

E ---------------------------------------------------||
B -11-11-11-11-11-11-11-11-15-15-15-13-13-11-11------||
G ---------------------------------------------------||
D ---------------------------------------------------||
A ---------------------------------------------------||
E ---------------------------------------------------||

CHORUS: (4X)

END

http://clouclub.cz/
Tap to rate this tab
# A B C D E F G H I J K L M N O P Q R S T U V W X Y Z