Cloud Control - This Is What I Said tab

This Is What I SAid by Cloud Control
Tuning: Standard

Intro/Main Riff - PLayed through whole song.
e|------------------------------------------|
B|-----8----7------------8---7--------------|
G|---7--7----9-7-------9--9---9-7-----------|
D|-5----------------10----------------------|
A|------------------------------------------|
E|------------------------------------------|

e|------------------------------------------|
B|-----8----7------------8---7-8-10---------|
G|---7--7----9-7-------9--9---------7-------|
D|-5----------------10----------------------|
A|------------------------------------------|
E|------------------------------------------|

Then at 2:31 this is played (The amount of times may not be correct but listen to 
the song and you'll get it)
e|------------------------------------------|
B|-------------------5-5-5-5-5-5-5-5--------|
G|--4-4-4-4-4-4-4-4-------------------------|
D|-5-5-5-5-5-5-5-5--5-5-5-5-5-5-5-5---------|
A|------------------------------------------|
E|------------------------------------------|

e|------------------------------------3-3-3-3-5-5-5-5----|
B|-------------------5-5-5-5-7-7-7-7---------------------|
G|--4-4-4-4-4-4-4-4--------------------------------------|
D|-5-5-5-5-5-5-5-5--5-5-5-5-5-5-5-5--5-5-5-5-5-5-5-5-----|
A|-------------------------------------------------------|
E|-------------------------------------------------------|

Then straight into this with a really fast up and down strum (again, amount may be incorrect)
e|-7-7-7-7-7-7-7-7-7-7-7-7-8-8-10-10-12-12-12-12-12-12-12-12-12-12-12-12-----------|
B|-8-8-8-8-8-8-8-8-8-8-8-8-8-8-8--8--8--8--8--8--8--8--8--8--8--8--8--8------------|
G|---------------------------------------------------------------------------------|
D|---------------------------------------------------------------------------------| x2
A|---------------------------------------------------------------------------------|
E|---------------------------------------------------------------------------------|

3:09
e|------------------------------------------|
B|-----8----7------------8---7--------------|
G|---7--7----9-7-------9--9---9-7-----------|
D|-5----------------10----------------------| x5
A|------------------------------------------|
E|------------------------------------------|

e|------------------------------------------|
B|-----8----7------------8---7-8-10---------|
G|---7--7----9-7-------9--9---------7-------|
D|-5----------------10----------------------|
A|------------------------------------------|
E|------------------------------------------|
Tap to rate this tab
 
# A B C D E F G H I J K L M N O P Q R S T U V W X Y Z