Song name
# A B C D E F G H I J K L M N O P Q R S T U V W X Y Z

Cloud Control - Pursuit Of Happiness tab

Cloud Control Ė Pursuit of Happiness (Kid Cudi cover)

e|------------------|
B|------------------|
G|------------------|
D|--5-5-5-5-5-5-5-5-|
A|-3-3-3-3-3-3-3-3--|
E|------------------|

The main guitar riff goes as follows, and is played throughout the song, unless stated in the tab.
e|------------------|
B|------------------|
G|------------------|
D|--5-5-5-5-5-5-5-5-|
A|-3-3-0-0----------|
E|---------0-0-0-0--|

Crush a bit; little bit; roll it up; take a hit
Feeliní lit; feeliní like 2 AM summer night

I donít care; hand on the wheel; drivin drunk; Iím doiní my thing
Rollin the midwest side and out liviní my life gettingí out dreams

People told me slow my road Iím screaming out fuck that
Imma do just what I want lookiní ahead no turniní back
If I fall if I die know I lived it to the fullest
If I fall if I die know I lived and missed some bullets

Chorus
Iím on the pursuit of happiness and I know everything that shines ainít always gonna be gold
Iíll be fine once I get it; Iíll be good

Verse 2:

Tell me what you know about dreaminí, dreaminí
You donít really know about nothiní, nothiní
Tell me what you know about them night terrors every night
5 AM cold sweats, wakiní up to the skies

D|-5-5-----------2--2------------|
A|-3-3-----------0--0------2--2--|
E|-------------------------0ó-0--|
Tell me what you know about dreams, dreams
Tell me what you know about night terrors, nothiní


e|------------------|
B|------------------|
G|------------------|
D|--5-5-5-5-5-5-5-5-|
A|-3-3-0-0----------|
E|---------0-0-0-0--|

You donít really care about the trials of tomorrow
Rather be awake in a bed full of sorrows

Chorus
Iím on the pursuit of happiness and I know everything that shines ainít always gonna be gold
Iíll be fine once I get it; Iíll be good

e|------------------|
B|------------------|
G|------------------|
D|--5-5-5-5-5-5-5-5-|
A|-3-3-3-3-3-3-3-3--|
E|------------------|
Ooh Ooh Ooh
Ooh Ooh Ooh

e|------------------|
B|------------------|
G|------------------|
D|--5-5-5-5-5-5-5-5-|
A|-3-3-0-0----------|
E|---------0-0-0-0--|
Ooh Ooh Ooh (vocal harmonies)
Ooh Ooh Ooh


Chorus
Iím on the pursuit of happiness and I know everything that shines ainít always gonna be gold
Iíll be fine once I get it; Iíll be good

D|-5-5-----|
A|-3-3-----| play this once, the rest is sung a cappella
E|---------|
Iím on the pursuit of happiness and I know everything that shines ainít always gonna be gold
Iíll be fine once I get it; Iíll be good
Tap to rate this tab
 
# A B C D E F G H I J K L M N O P Q R S T U V W X Y Z