Song name
# A B C D E F G H I J K L M N O P Q R S T U V W X Y Z

Cloud Control - Gold Canary chords

Highlighted       Show chord diagrams
Song: Gold Canary
Artist: Cloud Control
Tabbed By: Dave Grayhl
Tuning: Standard

I found this song on youtube by a channel called Watch Listen Tell; a video company who 
record all the best artists around, live, check them out.

Great song.

Chords;
   E  A F#m
e|-7--5--2--|
B|-7--5--2--|
G|-9--6--2--|
D|-9--7--4--|
A|-7--7--4--|
E|-0--5--2--|

Intro; E

E
I wonít hurt your mother
I wonít hurt your brother
I wonít hurt another
I wonít feel at all
I wonít hurt your mother
No donít hurt your brother
Iíll find other ways to
Know itís all alright

E
Oh
E
I wonít hurt your sister
I cannot resist her
A                E
Oh I got a way to go
Before I leave
I wonít tell her anything
                  A
That wonít be necessary
I would like to
E
Buy you a gold canary

E
Oh
Gold, gold, gold canary

Solo:                                                     Ex4 Dx2 Am
e|-12-12-12-12-12--10-10-10--12-12-12--10-10-10--10-10-12--7---5---x-5----|
B|-12-12-12-12-12--10-10-10--13-13-13--10-10-10--10-10-12--7---5---x-5----|
G|-12-12-12-12-12--10-10-10--14-14-14--12-12-12--12-12-14--9---7---x-5----|
D|-x--x--x--x--x---10-10-10--14-14-14--12-12-12--12-12-14--9---7---7-7----|
A|-x--x--x--x--x---x--x--x---12-12-12--10-10-10--10-10-12--7---5---7-7----|
E|-x--x--x--x--x---x--x--x---12-12-12--10-10-10--10-10-12--0---0---5-5----|

   Ex4              Ex4
e|-7---10-10-10-12--7-x-|
B|-7---10-10-10-12--7-x-|
G|-9---12-12-12-14--9-x-|
D|-9---12-12-12-14--9-x-|
A|-7---10-10-10-14--7-x-|
E|-0---10-10-10-14--0-x-|

E
Slip away, so break it to you softly
Will you lay a curse to my name?
F#m       A
Fly away, fly today
E
As my hands work on the birdcage
You disappear into the air
F#m       A
Fly away, fly today
E (ooooooooooooh)
Slip away, so break it to you softly
Will you lay a curse to my name?
F#m       A
Fly away, fly today
E
As my hands work on the birdcage
You disappear into the air
F#m       A        E
Fly away, fly today
F#m          A          E
Gold canary, gold canary
F#m          A          E
Gold canary, gold canary
F#m          A          E
Gold canary, gold canary
F#m          A          E
Gold canary, gold canary
F#m A E, F#m A E
Oh
F#m A E
Gold canary
F#m      A        E
Ohhh.
Tap to rate this tab
# A B C D E F G H I J K L M N O P Q R S T U V W X Y Z