Song name
# A B C D E F G H I J K L M N O P Q R S T U V W X Y Z

Cloud Cult - Washed Your Car tab

This is largely based on another tab for this song I found submitted by an unregistered 
user, but I thought part of it was wrong, so here's what I think is being played. (iammucow)

Intro/Verse

e|---------------------------------------------------------------------------|
B|-00----00----------------0----0--------------------------------------------|
G|---0-----0---220---220----0----0---------0---0-----------------------------|
D|-22-2--22-2--00-0--00-0----0----0------0--0-0-0-------------------(repeat)-|
A|-------------------------4----4-------3-3--2-------------------------------|
E|---------------------------------------------------------------------------|

Chorus

e|-3----3----2----2-----0----0-----------------------------------------------|
B|--0----0----0-----0----0----0------------0---0-----------------------------|
G|---0----0----0-----0----0----0---------0--0-0-0-------------------(repeat)-|
D|-2----2----0----0---------------------3-3--2-------------------------------|
A|----------------------3----3-----------------------------------------------|
E|---------------------------------------------------------------------------|
Tap to rate this tab
# A B C D E F G H I J K L M N O P Q R S T U V W X Y Z