Song name
# A B C D E F G H I J K L M N O P Q R S T U V W X Y Z

Cloud Cult - Love You All chords

Highlighted       Show chord diagrams
-------------------------------------------

Love You All
By Cloud Cult
On the album Feel Good Ghosts

Intro:

Slight Delay and reverb effects

e----15----15----15----15----15----15-------15---15---15---15---15---15-----|
B-12----12----12----12----12----12--------12----12---12---12---12---12------|
G----------------------------------------12----12---12---12---12---12-------|
D---------------------------------------------------------------------------|
A---------------------------------------------------------------------------|
E---------------------------------------------------------------------------|


Chords:
G - D - Em - C - G - D - 
C - D - G


Chords played high:

     G1     D1      Em1      C1     G1    D2     C1    D2    G1
e----15-----14-------15------10-----15----10-----10----10----15-----|
B----12-----10-------12------x------12----10-----x-----10----12-----|
G----12-----11-------x-------12-----12-----7-----12-----7----12-----|
D--------------------14------10------------------10-----------------|
A-------------------------------------------------------------------|
E-------------------------------------------------------------------|


(Be loose with these pickings, to make it sound sweet and nice with the delay. If

playing acoustic, feel free to change up the picking timing)

Start of song:
G - D - Em - C - G - D - 
C - D - G

          G   D
I love my mo-ther
          Em  C
I love my fa-ther
                 G
And when it's my time to go
       D
I need you to know
           C     -   D   -   G
I love you all


Instrumental Part

G-D-Em-C
G-D-C-D-G

          G   D
I love my mo-ther
          Em  C
I love my fa-ther
                 G
And when it's my time to go
       D
I need you to know
           C     -   D   -   G
I love you all

          G   D
I love my mo-ther
          Em  C
I love my fa-ther
                 G
And when it's my time to go
       D
I need you to know
           C     -   D   -   G
I love you all


Instrumental Part

G-D-Em-C
G-D-C-D-G

(more intense now!)

          G   D
I love my mo-ther
          Em  C
I love my fa-ther
                 G
And when it's my time to go
       D
I need you to know
           C     -   D   -   G
I love you all

          G   D
I love my mo-ther
          Em  C
I love my fa-ther
                 G
And when it's my time to go
       D
I need you to know
           C     -   D   -   G
I love you all

(acoustic and heartfelt)

          G   D
I love my mo-ther
          Em  C
I love my fa-ther
                 G
And when it's my time to go
       D
I need you to know
           C     -   D   -   G
I love you all


End on that G
Tap to rate this tab
 
# A B C D E F G H I J K L M N O P Q R S T U V W X Y Z