Song name
# A B C D E F G H I J K L M N O P Q R S T U V W X Y Z

Cloud Cult - Youre The Only Thing In Your Way tab

---------------------
---------------------
Artist: Cloud Cult
Song: You're The Only Thing In Your Way
Album: Love
Tuning: DADGAd
No Capo
---------------------
---------------------


[VERSE 1]

d|---------0---------------0---------------0--------------0-----------|
A|-------0---0-----------0---0-----------0---0----------0---0---------|
G|-----7-------7---7---6-------6---6---4------4---4---4-------4---4---|
D|---9-----------9---7-----------7---5----------5---5-----------5-----|
A|--------------------------------------------------------------------|
D|--------------------------------------------------------------------|
     drive           baby            drive
     run             baby            run

d|----------0------------------0------------------0-----------------0-----------|
A|--------0---0--------------0---0--------------0---0-------------0---0---------|
G|-----11-------11---11---12-------12---12---11-------11---11---9-------9---9---|
D|---0-------------0----0-------------0----0-------------0----0-----------0-----|
A|------------------------------------------------------------------------------|
D|------------------------------------------------------------------------------|
   ..trouble's gone
   ..all goes numb


[CHORUS 1]

d|---------0---------------0---------------0-------------------0-------------0---|
A|-------0---0-----------0---0-----------0---0---------------0-------------0-----|
G|-----4-------4---4---6-------6---6---7-------7---7-------7-------------6-------|
D|---5-----------5---7-----------7---9-----------9-------9-------------7---------|  x2
A|-------------------------------------------------------------------------------|
D|-------------------------------------------------------------------------------|
     you are the    wind..  flood..  flame            nothing here can get in your way
     you've come..  far to care..    say              you're the only thing in your way

d|---------0---------------0---------------0-------0-------0-------0---|
A|-------0---0-----------0---0-----------0-------0-------0-------0-----|
G|-----4-------4---4---4-------4---4---4-------2-------0-------2-------|
D|---5-----------5---5-----------5---5-------4-------2-------0---------|
A|---------------------------------------------------------------------|
D|---------------------------------------------------------------------|

d|-------------------------------------|
A|-------------------------------------|
G|---------6---------------6-----------|
D|-------7---7-----------7---7---------|
A|-----7-------7---7---7-------7---7---|
D|---7-----------7---7-----------7-----|
                     you're the only...

d|----------0------------------0------------------0-----------------0-----------|
A|--------0---0--------------0---0--------------0---0-------------0---0---------|
G|-----11-------11---11---12-------12---12---11-------11---11---9-------9---9---|
D|-----------------0----0-------------0----0-------------0----0-----------0-----|
A|------------------------------------------------------------------------------|
D|---0--------------------------------------------------------------------------|
  ..way


[VERSE 2]

d|---------0---------------0---------------0--------------0-----------|
A|-------0---0-----------0---0-----------0---0----------0---0---------|
G|-----7-------7---7---6-------6---6---4------4---4---4-------4---4---|
D|---9-----------9---7-----------7---5----------5---5-----------5-----|
A|--------------------------------------------------------------------|
D|--------------------------------------------------------------------|
     fly             baby            fly
     sing            baby            sing

d|----------0------------------0------------------0-----------------0-----------|
A|--------0---0--------------0---0--------------0---0-------------0---0---------|
G|-----11-------11---11---12-------12---12---11-------11---11---9-------9---9---|
D|---0-------------0----0-------------0----0-------------0----0-----------0-----|
A|------------------------------------------------------------------------------|
D|------------------------------------------------------------------------------|
   ..get you down
   ..all comes out


[CHORUS 2]

d|---------0---------------0---------------0-------------------0-------------0---|
A|-------0---0-----------0---0-----------0---0---------------0-------------0-----|
G|-----4-------4---4---6-------6---6---7-------7---7-------7-------------6-------|
D|---5-----------5---7-----------7---9-----------9-------9-------------7---------|  x2
A|-------------------------------------------------------------------------------|
D|-------------------------------------------------------------------------------|
     you are the    wind..  flood..  flame            nothing here can get in your way
     you've come..  far to care..    say              you're the only thing in your way

d|---------0---------------0---------------0-------0-------0-------0---|
A|-------0---0-----------0---0-----------0-------0-------0-------0-----|
G|-----4-------4---4---4-------4---4---4-------2-------0-------2-------|
D|---5-----------5---5-----------5---5-------4-------2-------0---------|
A|---------------------------------------------------------------------|
D|---------------------------------------------------------------------|

d|---------------------------------------------------------------------|
A|---------------------------------------------------------------------|
G|---------6---------------6---------------6---------------6-----------|
D|-------7---7-----------7---7-----------7---7-----------7---7---------|
A|-----7-------7---7---7-------7---7---7-------7---7---7-------7---7---|
D|---7-----------7---7-----------7---7-----------7---7-----------7-----|
                                                     you're the only...

d|----------0------------------0------------------0-----------------0-----------|
A|--------0---0--------------0---0--------------0---0-------------0---0---------|
G|-----11-------11---11---12-------12---12---11-------11---11---9-------9---9---|
D|-----------------0----0-------------0----0-------------0----0-----------0-----|
A|------------------------------------------------------------------------------|
D|---0--------------------------------------------------------------------------|
  ..way


[INSTRUMENTAL]  x2

d|---------0---------------0---------------0--------------0-----------|
A|-------0---0-----------0---0-----------0---0----------0---0---------|
G|-----7-------7---7---6-------6---6---4------4---4---4-------4---4---|
D|--------------------------------------------------------------------|
A|--------------------------------------------------------------------|
D|---9-----------9---7-----------7---5----------5---5-----------5-----|

d|----------0------------------0------------------0-----------------0-----------|
A|--------0---0--------------0---0--------------0---0-------------0---0---------|
G|-----11-------11---11---12-------12---12---11-------11---11---9-------9---9---|
D|------------------------------------------------------------------------------|
A|------------------------------------------------------------------------------|
D|---0-------------0----0-------------0----0-------------0----0-----------0-----|


[VERSE 3]

d|---------0---------------0---------------0--------------0-----------|
A|-------0---0-----------0---0-----------0---0----------0---0---------|
G|-----7-------7---7---6-------6---6---4------4---4---4-------4---4---|
D|--------------------------------------------------------------------|
A|--------------------------------------------------------------------|
D|---9-----------9---7-----------7---5----------5---5-----------5-----|
     breath          baby            breathe

d|----------0------------------0------------------0-----------------0-----------|
A|--------0---0--------------0---0--------------0---0-------------0---0---------|
G|-----11-------11---11---12-------12---12---11-------11---11---9-------9---9---|
D|------------------------------------------------------------------------------|
A|------------------------------------------------------------------------------|
D|---0-------------0----0-------------0----0-------------0----0-----------0-----|
   ..all is calm

d|---------0---------------0---------------0--------------0-----------|
A|-------0---0-----------0---0-----------0---0----------0---0---------|
G|-----7-------7---7---6-------6---6---4------4---4---4-------4---4---|
D|---9-----------9---7-----------7---5----------5---5-----------5-----|
A|--------------------------------------------------------------------|
D|--------------------------------------------------------------------|
     love            baby            love

d|----------0------------------0------------------0-----------------0-----------|
A|--------0---0--------------0---0--------------0---0-------------0---0---------|
G|-----11-------11---11---12-------12---12---11-------11---11---9-------9---9---|
D|-----------------0----0-------------0----0-------------0----0-----------0-----|
A|------------------------------------------------------------------------------|
D|---0--------------------------------------------------------------------------|


[CHORUS 3]

d|---------0---------------0---------------0-------------------0-------------0---|
A|-------0---0-----------0---0-----------0---0---------------0-------------0-----|
G|-----4-------4---4---6-------6---6---7-------7---7-------7-------------6-------|
D|-------------------------------------------------------------------------------|  x2
A|-------------------------------------------------------------------------------|
D|---5-----------5---7-----------7---9-----------9-------9-------------7---------|
     you are the    wind..  flood..  flame            nothing here can get in your way
     you've come..  far to care..    say              you're the only thing in your way

d|---------0---------------0-----------------0-------0-------0-------0---|
A|-------0---0-----------0---0-------------0-------0-------0-------0-----|
G|-----4-------4---4---4-------4---4-----4-------2-------0-------2-------|
D|-------------------------------------5-------4-------2-------0---------|
A|-----------------------------------------------------------------------|
D|---5-----------5---5-----------5---------------------------------------|

d|---------------------------------------------------------------------|
A|---------------------------------------------------------------------|
G|---------6---------------6---------------6---------------6-----------|
D|-------7---7-----------7---7-----------7---7-----------7---7---------|
A|-----7-------7---7---7-------7---7---7-------7---7---7-------7---7---|
D|---7-----------7---7-----------7---7-----------7---7-----------7-----|
                                                     you're the only...

d|----------0------------------0------------------0-----------------0-----------|
A|--------0---0--------------0---0--------------0---0-------------0---0---------|
G|-----11-------11---11---12-------12---12---11-------11---11---9-------9---9---|
D|-----------------0----0-------------0----0-------------0----0-----------0-----|
A|------------------------------------------------------------------------------|
D|---0--------------------------------------------------------------------------|
  ..way
Tap to rate this tab
# A B C D E F G H I J K L M N O P Q R S T U V W X Y Z