Song name
# A B C D E F G H I J K L M N O P Q R S T U V W X Y Z

Cloud Cult - Jaded Fable tab

Cloud Cult - Jaded Fable
Tabbed by: MissMaria :)

Bb
The fields are overturned
Ab
The skies all been burnt
Gm       Db           Bb
I am feeling rather strange


Bb
Shaman's drunk on whiskey
Ab
Princess's bred for fifty
Eb                 Db             Bb
I feel a little colder every day

(Humming)  
Db  Ab  B   Bb
Db  Ab  B   Bb

Bb
Mother I'm not safe
Ab
You'll find me buried in the fields
Gm              Db               Bb
With buffalo murdered for game

Bb
Mother will you say
Bbm                          Ab
That I'm dressed up for the kill
Eb                               Bbm            Bb
And there's something slowly wasting me away

                 Ab
You are my only friend
                  Eb
You are my wasted angel
     Db                       Ab              Db
And like before, you mean much more to me

                  Ab
You are my coming end
                  Eb
You are my jaded fable
 Db        Ab           Db              Bb
And like before, you mean much more to me

(Humming)  
Db  Ab  B   Bb
Db  Ab  B   Bb


Approximate Picking Pattern:
(Shown for first verse, repeat with different chords for other verses)

e|-------------------------------------------------------------|
B|-------------------------------------------------------------|
G|-------------------------------------------------------------|
D|-------8------------8-------------6------------6-------------|
A|----8----8---8----8---8---8-----6---6---6----6---6---6-------|
E|--6--------6----6-------6-----4-------4----4-------4---------|

e|-------------------------------------------------------------|
B|-------------------------------------------------------------|
G|--------3------------6---------------------------------------|
D|------5---5---5----6---6---6------6-------------6------------|
A|----5-------5----4-------4------6---6---6-----6---6---6------|
E|--3---------------------------4-------4-----4-------4--------|

Chord Diagrams:

       Bb      Ab      Gm    Db     Eb     B      Bbm
e|-----6-------4-------3------4-----6-----2-------6--------|
B|-----6-------4-------3------6-----8-----4-------6--------|
G|-----7-------5-------3------6-----8-----4-------6--------|
D|-----8-------6-------5------6-----8-----4-------8--------|
A|-----8-------6-------5------4-----6-----2-------8--------|
E|-----6-------4-------3-------x-----x-----x-------6-------|
Tap to rate this tab
 
# A B C D E F G H I J K L M N O P Q R S T U V W X Y Z