Song name
# A B C D E F G H I J K L M N O P Q R S T U V W X Y Z

Cloud Cult - Breakfast With My Shadow tab

Help us improve GuitareTab! Take a short survey!
This is the main guitar riff that is played throughout the song,
i'm not sure what the bass or any other guitar plays.

Standard Tuning:


|--------------------------------------------------------------------------|
|--------------------------------------------------------------------------|
|-----4-----4--------------------------------------------------------------|
|-5-5---5-5---5-----7-----7--------9-----9--------7-----7--------5-----5---|
|---------------5-5---5-5---5--7-7---7-7---7--5-5---5-5---5--3-3---3-3---3-|
|--------------------------------------------------------------------------|

con't
|--------------------------------------------------------------------------|
|--------------------------------------------------------------------------|
|--------------------------------------------------------------------------|
|-----7-----7--------5-----5--------9--------7-----------------------------|
|-5-5---5-5---5--3-3---3-3---3--7-7---7--5-5---5---------------------------|
|--------------------------------------------------------------------------|

There ya go,
Cloud Cloud = another sweet band out of MN
Related for Breakfast With My Shadow tab