Song name
# A B C D E F G H I J K L M N O P Q R S T U V W X Y Z

Cloud Cult - Living On The Outside Of Your Skin tab

Living on the Outside of Your Skin

This song is all bass and sleigh bells and wave organ for most of it but there’s some 
towards the end.

e|----------------------------------------------------------------------|
B|----------------------------------------------------------------------|
G|----------------------------------------------------------------------|
D|-5-------------7--------2-----------------9-----------7---------------|
A|-5-------------7--------2-----------------9-----------7---------------|
E|-3-------------5--------0-----------------7-----------5---------------|
  ..skin                                         livin on the outside…..                 
     livin on the outside

e|----------------------------------------------------------------------|
B|----------------------------------------------------------------------|
G|----------------------------------------------------------------------|
D|-5-------------7--------2-----------------9-----------7---------------|
A|-5-------------7--------2-----------------9-----------7---------------|
E|-3-------------5--------0-----------------7-----------5---------------|
  ..skin                                         livin on the outside…..                 
     livin on the outside

repeat until the end.  There’s some kinda wah pedal sounds over it and more bells at the 
good luck with that.
Tap to rate this tab
 
# A B C D E F G H I J K L M N O P Q R S T U V W X Y Z