Song name
# A B C D E F G H I J K L M N O P Q R S T U V W X Y Z

Cloud Cult - What Comes At The End tab

What Comes at The End

Opening piano line on guitar
e|-7----2--------------------------------------------------------------|
B|----3----------------------------------------------------------------|
G|---------------------------------------------------------------------|
D|---------------------------------------------------------------------|
A|---------------------------------------------------------------------|
E|---------------------------------------------------------------------|

This is the bass line with distortion tabbed for guitar.  There’s a variation before it 
that’s too low for me to figure out without a bass.
e|---------------------------------------------------------------------|
B|---------------------------------------------------------------------|
G|---------------------------------------------------------------------|
D|---------------------------------------------------------------------|
A|---5--5--------------------------------------------------------------|
E|---------5-5-5-5-5-5-5--7--7—-7--7-7-9-9-9-9-10-10-10-10-10-12-12-12-|

e|---------------------------------------------------------------------|
B|---------------------------------------------------------------------|
G|---------------------------------------------------------------------|
D|---------------------------------------------------------------------|
A|---------------------------------------------------------------------|
E|-14-14-14-12-12-10-10--14-14-14-12-12-10-10--------------------------|

e|---------------------------------------------------------------------|
B|---------------------------------------------------------------------|
G|-------7----7--------2---2---------4---4--------4----4---------------|
D|--0-0----0-0--0---2-2—2-2--2---4-4--4-4-4---4-4--4-4---4-------------|
A|---------------------------------------------------------------------|
E|---------------------------------------------------------------------|

e|----------------------------------------------------------------------|
B|----------------------------------------------------------------------|
G|--------0---0--------2---2--------4---4-------4----4------------------|
D|----0-0--0-0-0---2-2--2-2-2---4-4--4-4-4---4-4-4-4---4----------------|
A|----------------------------------------------------------------------|
E|----------------------------------------------------------------------|

[ *Solo
e|------------------------------------------------5---5-------9---9-----|
B|--7-7—7h8p7--5-5-5p32—2h3-2-0---0-2-2/3---7-7----7----7-7----7--------|
G|-------------------------------2--------------------------------------|
D|----------------------------------------------------------------------|
A|----------------------------------------------------------------------|
E|----------------------------------------------------------------------|


e|-10-12-14--10-12------------------------------------------------------|
B|----------------------------------------------------------------------|
G|----------------------------------------------------------------------|
D|----------------------------------------------------------------------|
A|----------------------------------------------------------------------|
E|----------------------------------------------------------------------|
 ] Repeat

e|-----------------------------------------------------9-9-9-9^--------|
B|-----7---7-------7---7-----9-9-9-9^-----7--7----7-7------------------|
G|---------------------------------------------------------------------|
D|-0-0---0-----0-0---0----0-----------0-0--0---0-0-0-------------------|
A|---------------------------------------------------------------------|
E|---------------------------------------------------------------------|

The Chords part is mostly C and D, but they’re not just straight minor or major chords.  
anyone else has that feel free to post it.
Tap to rate this tab
# A B C D E F G H I J K L M N O P Q R S T U V W X Y Z