Guitaretab - guitar tabs
Song name
# A B C D E F G H I J K L M N O P Q R S T U V W X Y Z

Cloud Cult - We Made Up Your Mind For You tab

We Made Up Your Mind For You

e|---------------------------------------------------------------------|
B|---------------------------------------------------------------------|
G|--5--------------7---7----5------------------------------------------|
D|--5--------------7---9----5-----[4x]---------------------------------|
A|--3--------------5---7----3------------------------------------------|
E|---------------------------------------------------------------------|

e|----------------------------------------------------------------------|
B|----------------------------------------------------------------------|
G|--9-9--9-9--9-9------------------------------5------------------------|
D|---------------------------------------------5------------------------|
A|--7-7--7-7--7-7---53-2-3--3--5-3-[2x]-------3-------------------------|
E|----------------------------------------------------------------------|
[ Tab from: http://www.guitaretab.com/c/cloud-cult/71263.html ]
e|---------------------------------------------------------------------|
B|---------------------------------------------------------------------|
G|-7-----5---------------7----4----5-----------------------------------|
D|-7-----5-----3---------7----4----5-----------------------------------|
A|-5-----3-----3---------5----2----3-----------------------------------|
E|-------------1-------------------------------------------------------|

e|---------------------------------------------------------------------|
B|---------------------------------------------------------------------|
G|--5------------------------------------------------------------------|
D|--5----------5-------3----------------------5------------------------|
A|--3----------5-------3----------------------5------------------------|
E|-------------3-------1----------------------3------------------------|
  Ö..be alright     ..itís no small trick   ..motherfuckers

e|----------------------------------------------------------------------|
B|----------------------------------------------------------------------|
G|--5-------------------------------------------------------------------|
D|--5-----------5-----------3--------5----------------------------------|
A|--3-----------5-----------3--------5----------------------------------|
E|--------------3-----------1--------3----------------------------------|
Do you believe

Repeat this riff walking up and down from C-G-F-G-C until end
Related for We Made Up Your Mind For You tab