Guitaretab - guitar tabs
Song name
# A B C D E F G H I J K L M N O P Q R S T U V W X Y Z

Cloud Cult - Clip-clop tab

Clip-Clop

e|---------------------------------------------------------------------|
B|---------------------------------------------------------------------|
G|--2----------------------------------------------2-------------------|
D|--2-----------------------------5----------------2-------------------|
A|--0-----------------------------5----------------0-------------------|
E|--------------------------------3------------------------------------|
                  Clip clop….        From no no no, and to yeah yeah yeah    [repeat]

e|---------------------------------------------------------------------|
B|---------------------------------------------------------------------|
G|--5---------------------------------2--------------------------------|
D|--5---------------------------------2--------------------------------|
A|--3---------------------------------0--------------------------------|
E|---------------------------------------------------------------------|
     And I have sailed through hurricanes…        and it took me somewhere [repeat]

e|---------------------------------------------------------------------|
B|---------------------------------------------------------------------|
G|------------------------2--------------------------------------------|
D|------------5-----------2--------------------------------------------|
A|------------5-----------0--------------------------------------------|
E|------------3--------------------------------------------------------|
That I don’t know           oh no no
[ Tab from: http://www.guitaretab.com/c/cloud-cult/71264.html ]
e|---------------------------------------------------------------------|
B|---------------------------------------------------------------------|
G|---------------------------2-----------------------------------------|
D|-------------5-------------2-----------------------------------------|
A|-------------5-------------0-----------------------------------------|
E|-------------3-------------------------------------------------------|
My happy happy     my yeah yeah yeah

e|---------------------------------------------------------------------|
B|---------------------------------------------------------------------|
G|--5--------------------------2-------------------5-------------------|
D|--5--------------------------2-------------------5-------------------|
A|--3--------------------------0-------------------3-------------------|
E|---------------------------------------------------------------------|
Strum strum, giddy guitar                 take me somewhere

e|---------------------------------------------------------------------|
B|---------------------------------------------------------------------|
G|-5---------------------------2---------------------------------------|
D|-5---------------------------2---------------------------------------|
A|-3---------------------------0---------------------------------------|
E|---------------------------------------------------------------------|
Strum strum                                     take me somewhere

e|---------------------------------------------------------------------|
B|---------------------------------------------------------------------|
G|---------------------------------------------------2-----------------|
D|-------------------------5-------------------------2-----------------|
A|-------------------------5-------------------------0-----------------|
E|-------------------------3-------------------------------------------|
Where they sing yeah yeah yeah   where they sing yeah yeah yeah
Related for Clip-clop tab
Advertisement will be closed in 10 seconds