Song name
# A B C D E F G H I J K L M N O P Q R S T U V W X Y Z

Cloud Cult - That Man Jumped Out The Window tab

I know this tab is already up, but I noticed it wasn't %100 accurate so I fixed the 
up. I'm positive of this. But thanks to RelicMatt84 who started this. I don't want to take 
the credit..


e|---------------------------------------------------------------------|
B|---------------------------------------------------------------------|
G|---------------------------------------------------------------------|
D|-----2----2-2-----3----3-3-----5----5-5-----9----9----9-9----9----9-9|
A|-3-3--3-3--3--3-3--3-3--3--3-3--3-3--3--7-7--7-7--7-7----0-0--0-0--0-|
E|---------------------------------------------------------------------|

e|------------------------------------------------------------------------|
B|------------------------------------------------------------------------|
G|-----------------------------------------------2----2--2------0---0---0-|
D|---10---10-10----3----3--3------2----2--2-------------------------------|
A|0-0--0-0--0--0-0--0-0--0--0-0-0--0-0--0--0------------------------------|
E|-------------------------------------------3-3--3-3--3--3-3-3--3-3--3--3|

e|---------------------------------------------------------------------|
B|---------------------------------------------------------------------|
G|----------------------------------0----0--0------------------0--0--1-|
D|----2----2--2------0----0--0---------------------3----3---3---0--0---|
A|---------------------------------------------------------------0--0--|
E|3-3--3-3--3--3-3-3--3-3--3--3-1-1--1-1--1--1-1-1--1-1--1-1--1--------|
Tap to rate this tab
# A B C D E F G H I J K L M N O P Q R S T U V W X Y Z