Song name
# A B C D E F G H I J K L M N O P Q R S T U V W X Y Z

Cloud Cult - Washed Your Car tab

Songs not entirely complete, i havent figured out the solo and stuff or most of the 
i'll get on it though. this is what i have so far

Intro/Verse

e|---------------------------------------------------------------------------|
B|-00----00----------------0----0--------------------------------------------|
G|---0-----0---220---220----0----0---------0---0-----------------------------|
D|-22-2--22-2--00-0--00-0----0----0-----0h2-0-0-0-------------------(repeat)-|
A|-------------------------4----4------------3-------------------------------|
E|---------------------------------------------------------------------------|

Chorus

e|-3----3----2----2-----0----0-----------------------------------------------|
B|--0----0----0-----0----0----0------------0---0-----------------------------|
G|---0----0----0-----0----0----0--------0h2-0-0-0-------------------(repeat)-|
D|-2----2----0----0--------------------------3-------------------------------|
A|----------------------3----3-----------------------------------------------|
E|---------------------------------------------------------------------------|

Outro (if you want extra bass string effects)

e|-3----3----2----2-----0----0-----------------------------------------------|
B|--0----0----0-----0----0----0------------0---0-----------------------------|
G|---0----0----0-----0----0----0--------0h2-0-0-0-------------------(repeat)-|
D|-2----2----0----0--------------------------3-------------------------------|
A|----------------------3----3-----------------------------------------------|
E|-0----0----2----2-----3----3-----------------------------------------------|
Tap to rate this tab
 
# A B C D E F G H I J K L M N O P Q R S T U V W X Y Z