Song name
# A B C D E F G H I J K L M N O P Q R S T U V W X Y Z

Cloud Cult - Transistor Radio tab

I know it's not 100% right but I sound good to me.

Capo on fret 7

INTRO
Riff 1 (x4)
-----------|
------4----|
---4-------|
-2---------|
-----------|
-----------|

Riff 2
--------------------------------------0---7----------0----7---|
-----0------0-------0------0----------------------------------|
---2------2-------2------2------2----------------2------------|
-2------1-----------------------------------------------------|
---------------4------2-------0----0----0-----0----0----0-----|
--------------------------------------------------------------|

VERSE (x2)
Riff 1 (x4)
-----------|
------4----|
---4-------|
-2---------|
-----------|
-----------|

Riff 2
------------------------------|
-----0------0-------0------0--|
---2------2-------2------2----|
-2------1---------------------|
---------------4------2-------|
------------------------------|

Riff 3
---------0---7---|
-----------------|
----2------------|
-----------------|
-0----0----0-----|
-----------------|

Riff 4
---------------4---|
-------------------|
-------1----1------|
---2---------------|
-------------------|
-0---0----0--------|

CHORUS
Riff 1 (x4)
---------|
-----5---|
---6-----|
-7-------|
---------|
---------|

Riff 2 (x4)
---------|
---------|
-----1---|
---2-----|
-2-------|
---------|

Riff 3
---------------4---|
-------------------|
-------1----1------|
---2---------------|
-------------------|
-0---0----0--------|

Riff 4
---------0---7---|
-----------------|
----2------------|
-----------------|
-0----0----0-----|
-----------------|

Do the riff 1 again and after do this.
-------------|
-------------|
-------------|
---1--2--4---|
-------------|
-------------|

After you do (x3)
INTRO
VERSE
CHORUS

End this with the chorus (x4).
Tap to rate this tab
# A B C D E F G H I J K L M N O P Q R S T U V W X Y Z