Song name
# A B C D E F G H I J K L M N O P Q R S T U V W X Y Z

Cloud Cult - I Heard Grampa tab

Cloud Cult - Transistor Radio


i had to rename this because for some dumb reason the tab was rejected.
apparently cause there were already two versions. but i know this one's
right, i watched him play it live and
(so i know the other two are wrong). It sounds perfect, believe me. It's
simple once you 
it down. There's just two progressions Craig uses throughout the whole song.
Dont deny it this time!

Capo 9
Drop D tuning
(relative to capo)
Main Riff/Verse

e|------------------------------5-----------2-----|
B|--2--2--2--2---------------3----3-3----3----3-3-|
G|-2--2--2--2---2--2--2--2--0-0----0----2-2----2--|
D|0--0--0--0---5--5--5--5--5---5-------0---0------|
A|------------5--4--2--0--------------------------|
D|------------------------5-----------0-----------|

Chorus

e|------------------------------2----------5-----|------------------|
B|--3--3--3--3---------------3---3-3----3----3-3-|--3--3--3--3------|
G|-4--4--4--4---2--2--2--2--2-2---2----0-0---0---|-4--4--4--4-----2-|
D|5--5--5--5---2--2--2--2--0---0------5---5------|5--5--5--5----2---|
A|------------4--4--4--4-------------------------|------------4-----|
E|------------------------0----------5-----------|------------------|
Tap to rate this tab
 
# A B C D E F G H I J K L M N O P Q R S T U V W X Y Z