Song name
# A B C D E F G H I J K L M N O P Q R S T U V W X Y Z

Cloud Nothings - Heartbeat tab

-Cloud Nothings
 -Heartbeat
  -Cloud Nothings

Tabbed by SShots11

Standard Tuning 

I have a weird feeling that Dylan plays this in a different tuning. Some parts don't sound
quite right. It would be easier to transcribe this if there was a live version.


INTRO 

|------------------------------------|
|-77777777-66666666-77777777-77-77-7-|
|-88888888-88888888-88888888-88-88-8-|
|-99999999-88888888-99999999-99-99-9-| x 4
|------------------------------------|
|------------------------------------|

VERSE

All anyone wants..
|-----------------------------------|
|-7-----7-6-------7---9-7-6---------|
|---8-------8-6-8---6-------8-6-6---|
|-----9-----------------------------|
|-----------------------------------|
|-----------------------------------|

All anyone wants..
|-----------------------------------|
|-7-----7-6-------7---9-7-6---------|
|---8-------8-6-8---6-------8-6-8---|
|-----9-----------------------------|
|-----------------------------------|
|-----------------------------------|

All anyone wants..
|-----------------------------------|
|-7-----7-6-------7---9-7-6---------|
|---8-------8-6-8---6-------8-6-6---|
|-----9-----------------------------|
|-----------------------------------|
|-----------------------------------|

All anyone wants..
|-----------------------------------|
|-7-----7-6-------7---9-7-----------|
|---8-------8-6-8---6---------------|
|-----9-----------------------------|
|-----------------------------------|
|-----------------------------------|

CHORUS

I don't have...
|-----------------------------------|
|-9h11p9---------------9-11---------|
|-------11-11-11-11-11--------------|
|-----------------------------------| x 16
|-----------------------------------|
|-----------------------------------|

That's it!
Tap to rate this tab
 
# A B C D E F G H I J K L M N O P Q R S T U V W X Y Z