Song name
# A B C D E F G H I J K L M N O P Q R S T U V W X Y Z

Cloud Nothings - Not Important tab

Album: Cloud Nothings

Rhythm guitar only

Intro/Verse

e -------------------------------|
B -------------------------------|
G 4-4-4-4-4-4-4-4-8-8-8-8-9-9-9-9|
D 4-4-4-4-4-4-4-4-8-8-8-8-9-9-9-9|
A 2-2-2-2-2-2-2-2-6-6-6-6-7-7-7-7|
E -------------------------------|

Chorus

e ----------------|
B ----------------|
G ---44------44---|
D 6--44--44--44--6|
A 6--22--44--22--6|
E 4------22------4|

Repeat Intro, Verse, and Chorus

Bridge

e --------|
B --------|
G 44556677|
D 44556677|  x7
A 22334455|
E --------|

Then just noise til the outro

Outro

e ----------------|
B ----------------|
G 99-------------9|
D 99-999-444-666-9|
A 77-999-444-666-7|
E ---777-222-444--|
Tap to rate this tab
# A B C D E F G H I J K L M N O P Q R S T U V W X Y Z