Song name
# A B C D E F G H I J K L M N O P Q R S T U V W X Y Z

Cloudkicker - Triumverate tab

Tabbed 28/6/2012 by Hyks

Artist: Cloudkicker
Album: The Discovery
Song: Triumverate!


Tuning: Drop B
B, F#, B, E, G#, C#


Riff 1:  play x2
||-----------------------------------------------------||
||-----------------------------------------------------||
||-----------------------------------------------------||
||-7--0--7--0--7--0--7--0--7--0------------------------||
||-5--0--5--0--5--0--5--0--5--0--------------1/3/1-----||
||----0-----0-----0-----0-----0--8/7-0-7/5-0-------5/3-||

[1.]
||---------------------------------------||
||---------------------------------------||
||---------------------------------------||
||-7--0--7--0--7--0---8----3----10----5--||
||-5--0--5--0--5--0---8----3----10----5--||
||----0-----0-----0-0-8--0-3--0-10--0-5--||

[2.]
||------------------------------------------||
||------------------------------------------||
||------------------------------------------||
||-7--0--7--0--7--0---8----3----10----0-0-0-||
||-5--0--5--0--5--0---8----3----10----0-0-0-||
||----0-----0-----0-0-8--0-3--0-10--0-0-0-0-||


Riff 2 (Play the endings every 5th time)        [1. 2. 3.]
||---|-----------------------------------------|-------------|
||---|-----------------------------------------|-------------|
||---|-----------------------------------------|-------------|
||---|-----------------------------------------|-------------|
||---|---3h5-5---3h5-5---3h5-5---3h5-5---3h5-5-|---3h5-3h5-5-|
||-0-|-0-------0-------0-------0-------0-------|-0-----------|


[4. 5. ]
||-------------||
||-------------||
||-------------||
||-------------||
||---3h5-------||
||-0-----6-5-3-||

[6.]
||------------------------------||
||------------------------------||
||------------------------------||
||------------------------------||
||------------------------------||
||-6-5-3----6-5-0~~~~~~~-0~~~~~-||


Legend:
[x] = Tail (x meaning on which play of the riff to play that ending)

~~~ = Hold note

xhx = Hammer-on (x meaning which fret)

/   = Slide
Tap to rate this tab
# A B C D E F G H I J K L M N O P Q R S T U V W X Y Z