Song name
# A B C D E F G H I J K L M N O P Q R S T U V W X Y Z

Cloudkicker - We Where All Scared tab

Tabbed by Hyks 17/10/12

Artist: Cloudkicker
Album: Beacons
Song: We where all scared.

Tuning: Drop B
B, F#, B, E, G#, C#


Intro background ambience
||-------------------------------------------------||
||-10-10-10-10-10-10-10-10-10-10-10-10-10-10-10-10-||
||-------------------------------------------------||
||-------------------------------------------------||
||-------------------------------------------------||
||-------------------------------------------------||
(Pick very fast and very lightly)


Main melody (NOTE: The duration of the notes aren't really shown here)
||--------------------------------------------------------------------||
||-14~~~~-------------------------------------------------------------||
||---------11~~~~--------14~~~~---------11~~~~~~----------------------||
||----------------12~~~~----------------------------------12~~~-11~~~-||
||------------------------------9~~~~~~-------------------------------||
||-----------------------------------------------12~~~~~~-------------||


Background ambience 2 (Starts on the second repeat on the main melody
||------------------||
||------------------||
||---11--11--11--11-||
||------------------||
||-9---9---9---9----||
||------------------||


Outro tapping
||-------------------------------------------------------||
||-t15-p7-h10-t14-p10-t14-p10---t15-p10-p7-t14-p7-t14-p7-||
||-------------------------------------------------------||
||-------------------------------------------------------||
||-------------------------------------------------------||
||-------------------------------------------------------||


And that's all! Got any questions? Leave a comment or send me a mail at Hyks97@hotmail.com!
Tap to rate this tab
# A B C D E F G H I J K L M N O P Q R S T U V W X Y Z