Song name
# A B C D E F G H I J K L M N O P Q R S T U V W X Y Z

Cloudkicker - Welcome Back tab

"Welcome Back"

Standard tuning (E A D G B E)
Capo on 3rd fret - I've written the tab so that the 3rd fret is 0 (that way
if you don't have a capo you don't have to do math gymnastics)

Fingerpicking-- I use my thumb for the E, A, and D strings, my index finger
for the G string, middle finger for the B string, and ring finger for the high
E string.

Guitar 1: A A B B A A B B
Guitar 2: A A A A A A A A
Guitar 3:         C C C C
Guitar 4:             D D

A:

---0---------------0---------------0------------------------------------------|
-3---------3-----3---------3-----3---------3----------------------------------|
-------0-------0-------0-------0-------0-------0------------------------------|
-----2-------2-------2-------2-------2-------2--------------------------------|
-3-------3-------3-------3-------3-------3------------------------------------|
------------------------------------------------------------------------------|


---0-------0------------------------------------------------------------------|
-3-------1-------0-------0-----0-------0-----0-------0------------------------|
-------0-------0-----0-------0-----0-------0-----0-------0--------------------|
-----2-------2----------------------------------------------------------------|
-3-------3---------2-------2-----2-------2-----2-------2----------------------|
-----------------0-----0-------0-----0-------0-----0--------------------------|


B:

---3---------------3---------------3---------------3--------------------------|
-1---------1-----1---------1-----1---------1-----1---------1------------------|
-------0-------0-------0-------0-------0-------0-------0-------0--------------|
-----2-------2-------2-------2-------2-------2-------2-------2----------------|
-3-------3-------3-------3-------3-------3-------3-------3--------------------|
------------------------------------------------------------------------------|


---3---------------3---------------3---------------3--------------------------|
-0---------0-----0---------0-----0---------0-----0---------0------------------|
-------0-------0-------0-------0-------0-------0-------0-------0--------------|
------------------------------------------------------------------------------|
-----2-------2-------2-------2-------2-------2-------2-------2----------------|
-0-------0-------0-------0-------0-------0-------0-------0--------------------|


C:

---7----------3-------------------7-------------------------------------------|
-5----------5----------5--------5---------------------------------------------|
---------------------4--------------------------------------------------------|
------------------------------------------------------------------------------|
------------------------------------------------------------------------------|
------------------------------------------------------------------------------|


D:

---8----------10-------8----------7-------------------------------------------|
-8----------8--------8----------8---------------------------------------------|
------------------------------------------------------------------------------|
------------------------------------------------------------------------------|
------------------------------------------------------------------------------|
------------------------------------------------------------------------------|
Tap to rate this tab
 
# A B C D E F G H I J K L M N O P Q R S T U V W X Y Z