Song name
# A B C D E F G H I J K L M N O P Q R S T U V W X Y Z

Cloudkicker - The Focus tab

-------------------------------------------------------------------------------
                             The Focus - Cloudkicker
-------------------------------------------------------------------------------
Tabbed by:kdivalentino
E-mail:

Tuning:DADGBE



        Intro
e|---------------------------------------------------------------------------|
B|---------------------------------------------------------------------------|
G|---------------------------------------------------------------------------|
D|---11-11-11----11-11-11-11-11-11-11-11----------------1X-------------------|
A|---0- 0- 0-----0--0--0--0--0--0--0--0--------------------------------------|
D|---------------------------------------------------------------------------|

e|---------------------------------------------------------------------------|
B|---------------------------------------------------------------------------|
G|---------------------------------------------------------------------------|
D|---11-11-11-11-11-----11-11-11-11-11-11-11-11---------2X-------------------|
A|---0--0--0--0--0------0--0--0--0--0--0--0--0-------------------------------|
D|---------------------------------------------------------------------------|

e|---------------------------------------------------------------------------|
B|---------------------------------------------------------------------------|
G|---------------------------------------------------------------------------|
D|---11-11-11-11-11-----11-11-11-11-11-11------0----------------------1x-----|
A|---0--0--0--0--0------0--0--0--0--0--0-------0--Let Ring-------------------|
D|----------------------------------------0----0-----------------------------|

        Theme 1 (* note different endings to transition back into theme 1)
        *only slide down from 12th fret before the first time through

e|---------------------------------------------------------------------------|
B|---------------------------------------------------------------------------|
G|---------------------------------------------------------------------------|
D|------------11-12-11-9-11------11-12-11-10-10-11-12-11~--------------------|
A|---12\------0--0--0--0-0-------0--0--0--0--0--0--0--0----------------------|
D|---------------------------------------------------------------------------|


e|---------------------------------------------------------------------------|
B|---------------------------------------------------------------------------|
G|---------------------------------------------------------------------------|
D|-----------11-12-11-9-11----11/14-14-0-12---0-9-0--------------------------|
A|-----------0--0--0--0-0-----0-----0--0-0----0-0-0--------------------------|
D|---------------------------------------------------------------------------|

 
e|---------------------------------------------------------------------------|
B|---------------------------------------------------------------------------|
G|---------------------------------------------------------------------------|
D|------------11-12-11-9-11------11-12-11-10-10-11-12-11~--------------------|
A|------------0--0--0--0-0-------0--0--0--0--0--0--0--0----------------------|
D|---------------------------------------------------------------------------|


e|----------------------------------------------------------Ending 1---------|
B|---------------------------------------------------------------------------|
G|-----------------------------------------------11-11-11-11-11-11-11\-------|
D|---11-12-11-9-11----11/14-14----0-----0-0------x--x--x--x--x--x--x---------|
A|---0--0--0--0-0-----0-----0-----0-----0-0------9--9--9--9--9--9--9\--------|
D|-----------------------------0--0-----0-0----------------------------------|
        

      Ending 2
e|---------------------------------------------------------------------------|
B|---------------------------------------------------------------------------|
G|-----x-11-11-11-11-14-14-14-14\16-16-16-16\18-18-18-18---------------------|
D|-----x-x--x--x--x--x--x--x--x--x--x--x--x--x--x--x--x----------------------|
A|-----x-9--9--9--9--12-12-12-12-14-14-14-14-16-16-16-16---------------------|
D|---------------------------------------------------------------------------|

     Ending 3
e|---------------------------------------------------------------------------|
B|---------------------------------------------------------------------------|
G|-----x-11-11-11-11-14-14-14-14\--------------------------------------------|
D|-----x-x--x--x--x--x--x--x--x----------------------------------------------|
A|-----x-9--9--9--9--12-12-12-12\--------------------------------------------|
D|---------------------------------------------------------------------------|

     Ending 4 
e|---------------------------------------------------------------------------|
B|---------------------------------------------------------------------------|
G|----7-7-7-7-7-7------------------------------------------------------------|
D|----x-x-x-x-x-x------------------------------------------------------------|
A|----5-5-5-5-5-5------------------------------------------------------------|
D|---------------------------------------------------------------------------|


        Theme 2
e|---------------------------------------------------------------------------|
B|---------------------------------------------------------------------------|
G|--9--11-11-11-11-14-14-14-14----------------6-6-6--------------------------|
D|--x--x--x--x--x--x--x--x--x----0---0-0------x-x-x--------------------------|
A|--7--9--9--9--9--12-12-12-12---0---0-0------4-4-4--------------------------|
D|-------------------------------0---0-0-------------------------------------|


e|---------------------------------------------------------------------------|
B|---------------------------------------------------------------------------|
G|--9--11-11-11-11-14-14-14-14----------------6/7---6\4--4/6---------2X------|
D|--x--x--x--x--x--x--x--x--x----0---0-0------x/x---x\x--x/x-----------------|
A|--7--9--9--9--9--12-12-12-12---0---0-0------4/5---4\2--2/4-----------------|
D|-------------------------------0---0-0-------------------------------------|

        Theme 3

e|---------------------------------------------------------------------------|
B|---------------------------------------------------------------------------|
G|----------------------5/7-------------------------*push this last hammer---|
D|-------5-5-0-5-0-0----x/x--0--3--3-3h5--5--3--3h5---3h5--------------------|
A|-------5-5-0-5-0-0----3/5--0--3--3-3h5--5--3--3h5---3h5--------------------|
D|-------5-5-0-5-0-0---------0--3--3-3h5--5--3--3h5---3h5--------------------|


e|---------------------------------------------------------------------------|
B|---------------------------------------------------------------------------|
G|--------------------5/7----------------------------------------------------|
D|----5-5----0-0------x/x---0-3---3-3-3--3/5--5/8--8h10-------5----5-5--0-0--|
A|----5-5----0-0------3/5---0-3---3-3-3--3/5--5/8--8h10-------5----5-5--0-0--|
D|----5-5----0-0------------0-3---3-3-3--3/5--5/8--8h10-------5----5-5--0-0--|


e|---------------------------------------------------------------------------|
B|---------------------------------------------------------------------------|
G|----------5/7--------------------------------------------------------------|
D|----------x/x--0--3--3-3h5--5--3--3h5---3h5----*push this last hammer -----|
A|----------3/5--0--3--3-3h5--5--3--3h5---3h5--------------------------------|
D|---------------0--3--3-3h5--5--3--3h5---3h5--------------------------------|


e|---------------------------------------------------------------------------|
B|---------------------------------------------------------------------------|
G|--------------------5/7----------------------------------------------------|
D|----5-5----0-0------x/x---0-3---3-3-3--3/5--5/8--8h10----3/5--5/8--8h10----|
A|----5-5----0-0------3/5---0-3---3-3-3--3/5--5/8--8h10----3/5--5/8--8h10----|
D|----5-5----0-0------------0-3---3-3-3--3/5--5/8--8h10----3/5--5/8--8h10----|


Solo/bridge  (this part is funky but easy once you get the beat)

e|---------------------------------------------------------------------------|
B|---------------------------------------------------------------------------|
G|--------666--------6677--------------------99------------------------------|
D|------------------------------999------77----------------------------------|
A|---------------------------------------------------------------------------|
D|--999---------999--------55-------555----------000-------------------------|


e|---------------------------------------------------------------------------|
B|---------------------------------------------------------------------------|
G|--------666--------6677--------------------99-------9h11-------------------|
D|------------------------------999------77----------------------------------|
A|---------------------------------------------------------------------------|
D|--999---------999--------55-------555----------000-------------------------|


e|---------------------------------------------------------------------------|
B|---------------------------------------------------------------------------|
G|--------666--------6677--------------------99------------------------------|
D|------------------------------999------77----------------------------------|
A|---------------------------------------------------------------------------|
D|--999---------999--------55-------555----------000-------------------------|


e|---------------------------------------------------------------------------|
B|---------------------------------------------------------------------------|
G|------666--------6677--------------------99--------9/11--------------------|
D|----------------------------999------77------------x/x----11-11-11-11-11-11|
A|---------------------------------------------------7/9----0--0--0--0--0--0-|
D|--999-------999--------55-------555----------000---------------------------|


        Outro (same as theme 2)
e|---------------------------------------------------------------------------|
B|---------------------------------------------------------------------------|
G|--9--11-11-11-11-14-14-14-14----------------6-6-6--------------------------|
D|--x--x--x--x--x--x--x--x--x----0---0-0------x-x-x--------------------------|
A|--7--9--9--9--9--12-12-12-12---0---0-0------4-4-4--------------------------|
D|-------------------------------0---0-0-------------------------------------|


e|---------------------------------------------------------------------------|
B|---------------------------------------------------------------------------|
G|--9--11-11-11-11-14-14-14-14----------------6/7---6\4--4/6---------2X------|
D|--x--x--x--x--x--x--x--x--x----0---0-0------x/x---x\x--x/x-----------------|
A|--7--9--9--9--9--12-12-12-12---0---0-0------4/5---4\2--2/4-----------------|
D|-------------------------------0---0-0-------------------------------------|

        Closing Riff

e|---------------------------------------------------------------------------|
B|---------------------------------------------------------------------------|
G|---------------------------------------------------------------------------|
D|-----5-5-0-5-0-0-----------------------------------------------------------|
A|-----5-5-0-5-0-0-Let Ring--------------------------------------------------|
D|-----5-5-0-5-0-0-----------------------------------------------------------|





************************************

| /   slide up
| \   slide down
| h   hammer-on
| p   pull-off
| ~   vibrato
| +   harmonic
| x   Mute note
| b   Bend
| pb  Pre-bend
| br  Bend release
| pbr Pre-bend release
| brb Bend release bend

************************************
Tap to rate this tab
# A B C D E F G H I J K L M N O P Q R S T U V W X Y Z