Song name
# A B C D E F G H I J K L M N O P Q R S T U V W X Y Z

Clueso - So Sehr Dabei tab

    
   Intro: |b |F |F# |b

  Verse1:
          b
          Die letzten Gäste sind raus, mein Glas ist so leer.
          F
          Neben mir die Stühle sind frei und so lang die Musik noch
          F#
          läuft und mein Tabak noch reicht,
                             b
          nehm ich das volle Programm.

          b
          Genieß den Rest von mei'm Rausch, mein Kopf ist so schwer.
          F
          Frauen war'n auch viele dabei, nur mit wem ich wann und wo
          F#
          war und welches Thema brisant
                                    b
          krieg ich grad nicht mehr zusamm'.


Chorus:
E||------------9---------|------------9---------|------------8---------|
B||-------6---------6----|-------6---------6----|-------6---------6----|
G||----------------------|----------------------|----------------------|
D||----------------------|----------------------|----------------------|
A||----------------------|----------------------|----------------------|
E||--6-------------------|--6-------------------|--5-------------------|

 Ich war so.....            sehr             dabei.
    
------------8---------|-------------------------|-------------------------|
-------6---------6----|-------------11----------|-------------11----------|
----------------------|-------------------------|-------------------------|
----------------------|-------11----------11----|-------11----------11----|
----------------------|--9----------------------|--9----------------------|
--5-------------------|-------------------------|-------------------------|
                  Ich war so.....                 sehr                      

----------------------|----------------------||
------------6---------|------------6---------||
-------6---------6----|-------6---------6----||
----------------------|----------------------||
----------------------|----------------------||
--6-------------------|--6-------------------||
dabei.


Verse2:
          b
          Ich kam alleine hierher um zu vergessen,
          F
          dachte mir was für ein Empfang und jeder lacht sich kaputt.
          F#
          Dabei war'n wir uns doch fremd,
                                    b
          so komisch könn' Menschen sein.

          b
          Ich war am tanzen und trinken fast wie besessen,
          F
          Leute schossen Fotos von mir und sie dachten ich krieg's nicht mit.
          F#
          Mein Gott wie einfach das ist
                              b
          im Kopf woanders zu sein.


Chorus (3x):
E||------------9---------|------------9---------|------------8---------|
B||-------6---------6----|-------6---------6----|-------6---------6----|
G||----------------------|----------------------|----------------------|
D||----------------------|----------------------|----------------------|
A||----------------------|----------------------|----------------------|
E||--6-------------------|--6-------------------|--5-------------------|

 Ich war so.....            sehr             dabei.
    
------------8---------|-------------------------|-------------------------|
-------6---------6----|-------------11----------|-------------11----------|
----------------------|-------------------------|-------------------------|
----------------------|-------11----------11----|-------11----------11----|
----------------------|--9----------------------|--9----------------------|
--5-------------------|-------------------------|-------------------------|
                  Ich war so.....                 sehr                      

----------------------|----------------------||
------------6---------|------------6---------||
-------6---------6----|-------6---------6----||
----------------------|----------------------||
----------------------|----------------------||
--6-------------------|--6-------------------||
dabei.


Outro (Play as long as you want and then fade out.)
E||------------9---------| 
B||-------6---------6----|
G||----------------------|
D||----------------------|
A||----------------------|
E||--6-------------------|
Tap to rate this tab
# A B C D E F G H I J K L M N O P Q R S T U V W X Y Z