Song name
# A B C D E F G H I J K L M N O P Q R S T U V W X Y Z

Clueso - Gewinner tab

Clueso-Gewinner (alte album version, mit akustik gitarre)
tempo und so müsst ihr selbst raus hören;)
ist am anfang etwas kompliziert...aber stimmt auf jeden fall so.



Verse:
|------0------------1------------0------------0------|  8x
|----1---1-1------1--2--2------1--1--1------1--1--1--|
|---2-2---2------2-2--3-------0-0--0-------0-0--0----|
|---------------3------3-----------------------------|
|--0-------------------------3------3-----2------2---|
|----------------------------------------------------|

Chorous:

   A      F                 C  
|---------|--1-----------|--0--|--2-------|  4x  
|--1------|--1-----------|--1--|--2-------|
|--2------|--2-----------|--0--|--0-------|
|--2--0---|--3-----------|--2--|--0--3-2--|
|--0---3--|--3--3-5-0----|--3--|--2-------|
|---------|--1--------3--|-----|--3-------|

Solo guitar chorous:

1.)          
|--5555555555555555-5/3-333----------------------|
|--------------------------111-1/3-333--1-3-3/5--|
|------------------------------------------------|
|------------------------------------------------|
|------------------------------------------------|
|------------------------------------------------|


2.)          
|--5555555555555555-5/3-333----------------------|
|--------------------------111-1/3-333--1-0-2----|
|------------------------------------------------|
|------------------------------------------------|
|------------------------------------------------|
|------------------------------------------------|

dann:

verse 8x
chorous ~5x

Chords:
die ganze zeit durchgehend: am - F - C - G

----------------------------------------------------------------------------------

das wars schon;)
viel spaß damit.


Tap to rate this tab
# A B C D E F G H I J K L M N O P Q R S T U V W X Y Z