Song name
# A B C D E F G H I J K L M N O P Q R S T U V W X Y Z

Clueso - So Sehr Dabei chords

Highlighted       Show chord diagrams
  Intro: Bbm, F, F#, Bbm

  Verse1:
          Bbm
          Die letzten gäste sind raus, mein glas ist so leer.
          F
          Neben mir die stühle sind frei und so lang die musik noch
          F#
          läuft und mein tabak noch reicht,
                             Bbm
          Nehm ich das volle programm.

          Bbm
          Genieß den rest von mei'm rausch, mein kopf ist so schwer.
          F
          Frauen war'n auch viele dabei, nur mit wem ich wann und wo
          F#
          war und welches thema brisant
                                    Bbm
          krieg ich grad nicht mehr zusamm'.

  Chorus:
          E|------9-------9--------8---------8------|
          H|----6---6---6---6-----------------------|
          G|--------------------10---10---10---10---|
          D|----------------------------------------|
          A|------------------8---------8-----------|
          E|--6-------6-----------------------------|
    Ich war  so      sehr   dabei


          E|----------------------------------------|
          H|-------11---------11--------6-------6---|
          G|--------------------------6---6---6---6-|
          D|----11----11---11----11-----------------|
          A|--9----------9--------------------------|
          E|------------------------6-------6-------|
    Ich war  so         sehr      dabei

  Verse2:
          Bbm
          Ich kam alleine hierher um zu vergessen
          F
          Dachte mir was für ein empfang und jeder lacht sich kaputt
          F#
          Dabei war'n wir uns doch fremd,
                                    Bbm
          so komisch könn' menschen sein

          Bbm
          Ich war am tanzen und trinken, fast wie besessen
          F
          Leute schossen fotos von mir und sie dachten ich krieg's nicht mit
          F#
          Mein gott wie einfach das ist
                              Bbm
          im kopf woanders zu sein


  Chorus:
          E|------9-------9--------8---------8------|
          H|----6---6---6---6-----------------------|
          G|--------------------10---10---10---10---|
          D|----------------------------------------|
          A|------------------8---------8-----------|
          E|--6-------6-----------------------------|
    Ich war  so      sehr   dabei


          E|----------------------------------------|
          H|-------11---------11--------6-------6---|
          G|--------------------------6---6---6---6-|
          D|----11----11---11----11-----------------|
          A|--9----------9--------------------------|
          E|------------------------6-------6-------|
    Ich war  so         sehr      dabei

  Verse3:
          Bbm
          Die letzten gäste sind raus, die tanzfläche so leer.
          F
          Meine gedanken so frei und solang die musik noch läuft
          F#
          und mein kleingeld noch reicht
                               Bbm
          Nehm' ich das volle programm.

          Bbm
          Genieß den rest von mei'm rausch, war gar nicht so schwer
          F
          und was ist schon dabei, denn mit wem irgendwann was wo war
          F#
          wirkt alles halb so brisant,
                                     Bbm
          denn wir komm' nicht mehr zusamm'.

  Chorus:
          Ich war so sehr dabei
          Ich war so sehr dabei

          Ich war so sehr dabei
          Ich war so sehr dabei

          Ich war so sehr dabei.
          Ich war so sehr...

   Outro: Wie der Chorus
Tap to rate this tab
 
# A B C D E F G H I J K L M N O P Q R S T U V W X Y Z