Song name
# A B C D E F G H I J K L M N O P Q R S T U V W X Y Z

Clueso - Erklaer Mir tab

Here is a little tab for the 2nd guitar of Clueso's 'Erklaer mir'. It is definately not 
complete (there is some more during the chorus etc.) but it's though a joy to play :)

Have fun!


Intro
1:02 - 1:31

e-----------------10------7---------------------12--------------------------|
B---------------------------------------------------------------------------|
G----------------------------------------------------------7--9h--7--9h--9--|
D-5--7/9------9---------------------------------7--7---7--------------------|
A---------------7------5--7/9--9--7----7--5---------------------------------|
E--------------------------------------------7------------------------------|

e--19-----------------------------7--(5)------------------------------------|
B----17---------------------------------------------------------------------|
G--------7--9/11--11/12\11--9--9--------------------------------------------|
D---------------------------------------------------------------------------|
A---------------------------------------------------------------------------|
E---------------------------------------------------------------------------|


Pre-Chorus
2:00 - 2:11

e -------------7--------------------------------|
B ---8--8/10------9-----------------------------|
G -------------------7--9--7--9/11--11--9-------|
D ----------------------------------------------|
A ----------------------------------------------|
E ----------------------------------------------|


End
3:57 - End

e ----------------------------------|   x2
B ---10/17--------------------------|
G ----------------------------------|
D ----------------------------------|
A -------------------9--------7-----|
E ----------------10---10--8--------|

then

e ---------------------------------------------------------------|(G D C x2)
B ---10/17-------------------------------------------------------|
G ---------------------------------------------------------------|
D ---------------------------------------------------------------|
A ---------------9--------10----14--14--14--14---15--15--15--15--|
E ------------10---10--8----------15--15--15--15---15--15--15--15|


| /   slide up
| \   slide down
| h   hammer-on
Tap to rate this tab
# A B C D E F G H I J K L M N O P Q R S T U V W X Y Z