Song name
# A B C D E F G H I J K L M N O P Q R S T U V W X Y Z

Clueso - Barfuss tab

Clueso hat, wenn er den Song live spielt, die G Saite einen Halbton höher gestimmt, also
so: E A D G# B E.
Auf der Albumversion ist das Ganze noch einen Halbton tiefer gestimmt: D# G# C# G A# D#.
Da ich aber zu faul bin, meine Gitarre jedesmal umzustimmen, hab ich hier eine
Möglichkeit aufgeschrieben,
den Song im Standardtuning zu spielen. Ob das jetzt komplizierter ist, als seine 
Gitarre umzustimmen,
bleibt jedem selber überlassen ;) (bei den Mollakkorden greife ich den Grundton mit dem
Daumen). Wenn ihr's wie
Clueso spielen wollt (also in E A D G# B E), müsst ihr einfach nur die 3 hohen Saiten
(G#, B und E) bei
jedem Akkord leer  anspielen. Wenn ihr den Song mit dem Albumintro spielen wollt, habt
ihr keine Wahl,
das geht nicht ohne umstimmen. Das Intro ist schon online (nicht von mir getabt).

Zur Erinnerung, wenn ihr zur Platte spielen wollt: Tuning: D# G# C# G A# D#.

Intro: http://www.911tabs.com/link/?5898250

Performance, die ich zum tabben benutzt hab:
http://www.youtube.com/watch?v=JcrOhV1r-vI&feature=related


TUNING: STANDARD


INTRO

  C#m      D#m         E           D#m      A

|-0-----0--0--0-----0--0--0-----0--0-|    |-0---|
|-0-----0--0--0-----0--0--0-----0--0-|    |-0---|
|-x-----x--x--x-----x--x--x-----x--x-|    |-6---|
|-2-----2/-4--4-----4/-6--6-----6--4-|    |-7---|
|-4-----4/-6--6-----6/-7--7-----7--6-|    |-7---|
|------------------------------------| 3x |-5---|


STROPHE

  C#m      D#m         E           D#m      A

|-0-----0--0--0-----0--0--0-----0--0-|    |-0---|
|-0-----0--0--0-----0--0--0-----0--0-|    |-0---|
|-x-----x--x--x-----x--x--x-----x--x-|    |-6---|
|-2-----2/-4--4-----4/-6--6-----6--4-|    |-7---|
|-4-----4/-6--6-----6/-7--7-----7--6-|    |-7---|
|------------------------------------| 3x |-5---|

  C#m      D#m         E           D#m      A   F#m

|-0-----0--0--0-----0--0--0-----0--0-|    |-0---0---|
|-0-----0--0--0-----0--0--0-----0--0-|    |-0---0---|
|-x-----x--x--x-----x--x--x-----x--x-|    |-6---2---|
|-2-----2/-4--4-----4/-6--6-----6--4-|    |-7---4---|
|-4-----4/-6--6-----6/-7--7-----7--6-|    |-7---4---|
|------------------------------------| 3x |-5---2---|


CHORUS

  B   C#m  A       G#m F#m A   B

|-0---0----0-------0---0---0---0---|
|-0---0----0-------0---0---0---0---|
|-8---9----6-------4---2---6---8---|
|-9---11---7-------6---4---7---9---|
|-9---11---7-------6---4---7---9---|
|-7---9----5-------4---2---5---7---|


STROPHE


BRIDGE

  C#m  B   A   G#m F#m E

|-0----0---0---0---0---0-----|
|-0----0---0---0---0---0-----|
|-9----8---6---4---2---1-----|
|-11---9---7---6---4---2-----|
|-11---9---7---6---4---2-----|
|-9----7---5---4---2---0-----|


CHORUS

  B   C#m  A       G#m F#m

|-0---0----0-------0---0---|
|-0---0----0-------0---0---|
|-8---9----6-------4---2---|
|-9---11---7-------6---4---|
|-9---11---7-------6---4---|
|-7---9----5-------4---2---|
Tap to rate this tab
 
# A B C D E F G H I J K L M N O P Q R S T U V W X Y Z