Song name
# A B C D E F G H I J K L M N O P Q R S T U V W X Y Z

Clueso - Halt Mich Fern tab

Tabbed by: Kadima
E-mail:johu2000-us@yahoo.de
Standard tuning

|D#m  C#   C#'  A    Bbm  B    F#   F  F#m|
|6----4----9----5----6----7----2----1----2|
|7----6----9----5----6----7----2----1----2|
|8----6----10---6----6----8----3----2----2|
|8----6----11---7----8----9----4----3----4|
|6----4----11---7----8----9----4----3----4|
|6----4----9----5----6----7----2----1----2|

Intro: 
Guitar 1: D#m C#' A C#'
Guitar 2:
|1---2---3---4---|1---2---3---4---|1---2---3---4---|1---2---3---4---|

|6-----------6-44|----------------|----------------|--------------4-|
|-----------6----|--6--------22-4-|5----------25--4|-------2----6--6|
|----------------|----------------|----------------|----------------|
|----------------|----------------|----------------|----------------|
|----------------|----------------|----------------|----------------|
|----------------|----------------|----------------|----------------|

|6-9---------6-44|-6--------------|----------------|----------------|
|----------------|--6--------22-4-|5--4--2-----4---|2---------------|
|-----------6----|----------------|----------------|----------------|
|----------------|----------------|----------------|----------------|
|----------------|----------------|----------------|----------------|
|----------------|----------------|----------------|----------------|

Verse:
Bbm                            B                        A
    Ich wach auf, denn du bist krachend in mein Leben gefallen.
              F#     C#                     F
Kannst in mir lesen. Warum fällt dir das so leicht?
Bbm                            B                        A
    Ich mach auf und lass dich nah an mich ran wie noch keinen.
      F         C#                         F
Deinetwegen geb ich plötzlich viel von mir preis.
Bbm                               B                    A
    Und was auch immer du willst,   ich tu dir jeden Gefallen.
                    F#
Doch kann ich nicht regeln (was du noch klären musst).
          C#                    F
Was da zu klären ist, ist nicht meins.

Chorus:
              D#m               C#'
Ich halt mich fern, so fern das geht.
              A                                  C#'
Ich halt mich fern von dir (so fern), solang ich kann.
              D#m             C#'
Ich halt dich fern, soweit es geht.
              A               C#'
Halt ich mich fern von meinem Verlangen.

Verse:
Bbm                        B                           A
    Vielleicht habt ihr ja Recht, doch ich seh`s nicht ein.
             F#                  C#               F
Ihr habt gut reden, mir fällt es schwer nichts zu tun, denn 
Bbm                         B                A
    ich halt nicht viel von Taktik und Spielereien.
          F#                  C#           F
Hab was dagegen, doch werd versuchen so zu tun.

Chorus

Bridge:
F#m                                   A
    Und mein Verstand sagt, so ist es besser.
            B                            F#m              A
Doch in mir drinnen sieht es leider ganz anders aus. Ganz anders aus.

Outro: D#m C#' A C#'
Tap to rate this tab
# A B C D E F G H I J K L M N O P Q R S T U V W X Y Z