Song name
# A B C D E F G H I J K L M N O P Q R S T U V W X Y Z

Clueso - Viel Gesehen tab

Highlighted       Show chord diagrams
-------------------------------------------------------------------------------
			     VIEL GESEHEN - Clueso
-------------------------------------------------------------------------------
Tabbed by: Sepp

Tuning: standard


Intro & Verse: G# / F#

Chorus: C# / G# / A#m / Fm 
      
        C# / G# / A#



e|--4--|--2--|--4--|--6--|--6--|--1--|
B|--4--|--2--|--6--|--6--|--6--|--1--|
G|--5--|--3--|--6--|--6--|--7--|--1--|
D|--6--|--4--|--6--|--8--|--8--|--3--|
A|--6--|--4--|--4--|--8--|--8--|--3--|
E|--4--|--2--|-----|--6--|--6--|--1--|

    G#    F#    C#   A#m    A#    Fm



NOTE: in the chorus first you play a A#m and at the end a A# (!)
Tap to rate this tab
 
# A B C D E F G H I J K L M N O P Q R S T U V W X Y Z