Guitaretab - guitar tabs
Song name
# A B C D E F G H I J K L M N O P Q R S T U V W X Y Z

Clutch - Whites Ferry tab

-------------------------------------------------------------------------------
			        Whites Ferry - Clutch
-------------------------------------------------------------------------------


7.10.08
Tabbed by: Tyler Eibl
Email: Tyler420@gmail.com

Tuning: Standard
One guitar version.


e|------------------------|-----------------------|
B|o-----------------------|-----------------------|
G|------------------------|-----------------------|
D|---------3-5-5h6p5-3-5--|------3-5-5h6p5-3-5----|
A|o----5~-----------------|--3~-------------------|
E|------------------------|-----------------------|


e|------------------------------------|
B|o-----------------------------------|
G|------------------------------------|
D|---------3-5-5h6p5-3-5--3-2~---/(5)-|
A|o----5~-----------------------------|
E|------------------------------------|


e|---------------------------------|
B|o-----------6-8-8br-6-8----------|
G|---------/7-------------7/9------|
D|---------------------------------|
A|o----5~--------------------------|
E|---------------------------------|


e|------------------------|-------------------------|
B|o-----------------------|-------------------------|
G|------------------------|-------------------------|
D|------------------------|-----------3\2-3\2-3\2~--|
A|o---------5~-------3~---|-----5~------------------|
E|------------------------|-------------------------|
"..only the dirt..  ..I do believe.."

e|------------------------|-------------------------|
B|o-----------------------|-------------------------|
G|------------------------|-------------------------|
D|------------------------|-------------5--3-5-5b~--|
A|o-----------5~-----3~---|--------5~---------------|
E|------------------------|-------------------------|
"..As memory vanishes. ..Among the leaves."


Chorus

e|------|--------------------------------|
B|o-----|--------------------------------|
G|------|--7----7-7-7-5-5-5---------7~---|
D|---5--|--7----------------7-7-7-3-5~---|
A|o--5--|--5-----------------------------|
E|---3--|--------------------------------|


e|--------------------------|-------------------------|
B|o-------------------------|-------------------------|
G|---7-7-7-5-5-5------------|--7-7-7-5-5-5---------7~-|
D|---------------7-7-7-3-7~-|--------------7-7-7-3-5~-|
A|o----------------------5~-|-------------------------|
E|--------------------------|-------------------------|

e|-------------------------|
B|o------------------------|
G|---7-7-7-5-5-5-----------|
D|---------------7-7-7-3---|
A|o------------------------|
E|-------------------------|

e|---------------------------------------------------------|
B|o--------------------------------------------------------|
G|---7p5---5-7-7--7p5---5-7-7--7p5---5-7-7--7p5---5-7-7----|
D|-------7------------7------------7------------7----------|
A|o--------------------------------------------------------|
E|---------------------------------------------------------|
 .." Mistreating granite, limestone, and clay".

End chorus with
e|------|
B|o-----|
G|---5~-|
D|---3~-|
A|o-----|
E|------|

Verse 2

e|------------------------------|-------------------|
B|o-----------------------------|-------------------|
G|------------------------------|-------------------|
D|----------------3-5-5b6r-3-5--|---------5-3~--0---|
A|o----5~------3~---------------|--5~---------------|
E|------------------------------|-------------------|
.."Cradled in ivy.."

e|-----------------------------------------------------------|
B|o-----------6-8-8b~--8~------------------------------------|
G|---------/7------------------------------------------------|
D|-------------------------------0-3-5-5br-3-5br-3-5br--3----|
A|o----5~--------------------5~---------------------------3~-|
E|-----------------------------------------------------------|

Repeat chorus

Lead thing
e|------------------------------------------------|
B|o-----------------------------------------------|
G|----17-16-17-16-17-14---14-17-16-17-16-17/19----|
D|---------------------------------------------17-|
A|o-----------------------------------------------|
E|------------------------------------------------|x3

[ Tab from: http://www.guitaretab.com/c/clutch/111246.html ]
e|-----------------------17-15-14-15-14-12-14-12-10-----|
B|o-------------------------------------------------12--|
G|----17-16-17-16-17-14---------------------------------|
D|------------------------------------------------------|
A|o-----------------------------------------------------|
E|------------------------------------------------------|


e|--------------------5----------------8-------|
B|o--(5)5(5)5(5)5-8p5----(5)5(5)5(5)5--8-------|
G|---/6--/6--/6----------/6--/6--/6------------|
D|---------------------------------------------|
A|o--------------------------------------------|
E|---------------------------------------------|

e|---------------------5--------------------------------|
B|o---(5)5(5)5(5)5-8p5------8---------------------------|
G|----/6--/6--/6---------7b---7-5-5-7-5---5-------------|
D|--------------------------------------7---7-5---------|
A|o-----------------------------------------------------|
E|------------------------------------------------------|

e|---------------------5----------------8--------------------5---|
B|o---(5)5(5)5(5)5-8p5----(5)5(5)5(5)5--8---(5)5(5)5(5)5-8p5-----|
G|----/6--/6--/6----------/6--/6--/6--------/6--/6--/6-----------|
D|---------------------------------------------------------------|
A|o--------------------------------------------------------------|
E|---------------------------------------------------------------|

e|-----------------------|
B|o---(3)3(3)3-(4)4(4)4--|
G|----/4--/4---/5--/5----|
D|-----------------------|
A|o----------------------|
E|-----------------------|

Repeat Chorus

Verse/Outro

e|---------------------|-----------------------------|
B|o--------------------|-----------------------------|
G|--------------5-5h7~-|-------5-7-5-7-5-------------|
D|---------------------|-----------------\5-3-5~-----|
A|o---------5~---------|---5~------------------------|
E|---------------------|-----------------------------|
.."Only the dirt"          


e|---------------------------------------------------------------|
B|o-----------6-8p6-8b~--6~--------------------------------------|
G|---------/7--------------------7-7-5---------------------------|
D|-------------------------------------5-3-5br-3-5br-3-5br-3-5~--|
A|o----5~--------------------5~----------------------------------|
E|---------------------------------------------------------------|


e|-----------------------------------------------------------|
B|o----------------------------------------------------------|
G|-----------------------------------------------------------|
D|---------3-5b---------3-5br-3-5b---------3-5-5br-3---------|
A|o----5~-----------3-5----------------3-5-----------5-------|
E|-----------------------------------------------------------|
      (5)                (3)           (5)


e|-----------------------|
B|o----------------------|
G|-----------------------|
D|-----3-5-5br-3---3-----|
A|o--5-----------5~---5--|
E|-----------------------|
          (3)                          
End on

G1
e|-----------------------------------------|
B|o----------------------------------------|
G|-----------------------------------------|
D|-----------------------------------------|
A|o--5555555555555555-3333333333333333-----|
E|-----------------------------------------|
. . .pm.............. ................
G2
e|---------------------------------|
B|o--------------------------------|
G|-----5-5h7~-------5--------------|
D|--------------------\5~----------|
A|o--------------------------------|
E|---------------------------------|x4
         (5)          (3)


Whiteís Ferry

Only the dirt I do believe.
As memory vanishes among the leaves.

Wizard of tickets is always glad to charge a pilgrimís fare.
Jubileeís generally early. Letís take the country air.
Mistreating granite, limestone, and clay. Itís a shameful soil.
But all grows well on the floodplain tract if you can afford the toil.

Cradled in ivy, we will allow
the moss to prosper upon our brows.

Boxer rebellion, the Holy Child. They all pay their rent.
But none together can testify to rhythm of a road well bent.
Saddles and zip codes, passports and gates, the Jonesí keep.
In August the water is trickling, in April itís furious deep.

Wizard of tickets is always glad to charge a pilgrimís fare.
Jubileeís generally early. Letís take the country air.
Mistreating granite, limestone, and clay. Itís a shameful soil.
But all grows well on the floodplain tract if you can afford the toil.

Only the dirt I do believe.
Divinity vanishes among the leaves.

Related for Whites Ferry tab