Song name
# A B C D E F G H I J K L M N O P Q R S T U V W X Y Z

Clutch - When Vegans Attack tab

When Vegans Attack by Clutch

e-----------------------------------------|
B-----------------------------------------|
G-9b-9-7-9p7-7-9-7---7--9b-9-7-9p7-11-----|  play twice
D------------------9------------------9-9-|
A-----------------------------------------|
E-----------------------------------------|

e------------------------------------------------|
B----15----15----15----15----17----17----17---17-|
G-14----14----14----14----16----16----16----16---|
D------------------------------------------------|
A------------------------------------------------|
E------------------------------------------------|

e------------------------------|
B------------------------------|
G----------------------10/19---| 
D-0-0-3p0--0-0-3p0---0---------|
A------------------------------|
E------------------------------|

e------------------------------------------------------------------------|
B-------------------------15----15----15----15----17----17----17----17---|
G-0-0-3p0--0-0-3p0-----14----14----14----14----16----16----16----16------|
D------------------------------------------------------------------------|
A------------------------------------------------------------------------|
E------------------------------------------------------------------------|

e-----------------------|                    e--------------------------|
B-----------------------|                    B--------------------------|
G-----------------------| play 3 times then  G--------------------------|
D-----5-----------------|                    D-----5--------------------|
A-5h7---0-5h7-----------|                    A-5h7---0-5h7--------------|
E-------------0-5p0-8-8-|                    E--------------------------|

e-----------------------------|
B-----------------------------|
G-----------------------------|
D-----------------------7/16--|
A-9999-9999-9999--7h8h9-------|
E-7777 7777-7777--------------|
  xxxx xxxx xxxx

SOLO
e----------------------------------------------12-10----------------12-10---|
B----------------------------------10----12-10----------10----12-10---------|
G-11-9-7-11-9-7-9br-7-9b-9br-7--11----11-------------11----11---------------|
D---------------------------------------------------------------------------|
A---------------------------------------------------------------------------|
E---------------------------------------------------------------------------|

e---------------------------|
B---------------10----------|
G-7h9p7-9/11-11----11-9-7---|
D-------------------------9-|
A---------------------------|
E---------------------------|

e---------------------------------------------------------------------------|
B----15----15----15----15----17----17----17---17----13----13----13----13----|
G-14----14----14----14----16----16----16----16---12----12----12----12-------|
D---------------------------------------------------------------------------|
A---------------------------------------------------------------------------|
E---------------------------------------------------------------------------|

e--------------------------|
B----15----15----15----15--|
G-14----14----14----14-----|
D--------------------------|
A--------------------------|
E--------------------------|

OUTRO
e-----------------------------|
B-----------------------------|
G-----------------------------|
D-----5-----------------------|
A-5h7---5-3h5p3-0-3h5-7p5-----|
E-------------------------8p5-|

Tabbed by Ben Shutt
Any corrections please comment
Tap to rate this tab
# A B C D E F G H I J K L M N O P Q R S T U V W X Y Z