Song name
# A B C D E F G H I J K L M N O P Q R S T U V W X Y Z

Clutch - The Rapture Of Riddley Walker tab

-------------------------------------------------------------------------------
	          Rapture Of Ridley Walker - Clutch
-------------------------------------------------------------------------------
Tabbed by:Josh Engel	
Email:joshengel@fuse.net	

Tuning:Standard

  I use Tremolo and Wah-Wah To get close to tone for Gtr. 1
  I also don't know where they play riff but gtr.1 sounds higher so 

  Gtr.1                                            x4
e|----------------------------------------------------|
B|----------------------------------------------------|
G|----------------------------------------------------|
D|-----14-12~ -12-14-12---------12-14~ -12-14-12-14~ -|
A|--14------------------12~ -14-----------------------|
E|----------------------------------------------------|

  Gtr.2                                            x4
e|----------------------------------------------------|
B|----------------------------------------------------|
G|----------------------------------------------------|
D|----------------------------------------------------|
A|------7--5~ -5--7--5----------5--7~ --5--7--5--7~ --|
E|---7------------------5~ --7------------------------|

  Bends= as you strike note bend down just a wee bit!(I do anyways)

  Gtr.'s 1 & 2                          x4                   Gtr.1 
e|------------------------------------------|---------------|------------|
B|------------------------------------------|---------------|-3-----3----|
G|------------------------------------------|---------------|-1-----1----|
D|------------------------------------------|-----------7-9-|-2--2--2--2-|
A|--5b----5-7-7b-5-7b-5--5b----------5b-----|------7-5--5-7-|-2--2--2--2-|
E|-----7--------------------7--5-5-7----7~ -|-7-5~ ---------|----0-----0-|

                                                              Gtr.2
e|------------------------------------------|---------------|------------|
B|------------------------------------------|---------------|------------|
G|------------------------------------------|---------------|-9--9--9--9-|
D|------------------------------------------|---------------|-9--9--9--9-|
A|------------------------------------------|---------------|-7--7--7--7-|
E|------------------------------------------|---------------|------------|

  For Solo Tremolo Pick with Wah in E Scale of twelth fret halfway through
  I think he goes back and forth on E on 7th fret and D on 5th then hits an E chord

| /  slide up
| \  slide down
| h  hammer-on
| p  pull-off
| ~  vibrato
| +  harmonic
| x  Mute note
===============================================================================
Tap to rate this tab
 
# A B C D E F G H I J K L M N O P Q R S T U V W X Y Z