Song name
# A B C D E F G H I J K L M N O P Q R S T U V W X Y Z

Clutch - Careful With That Mic tab

CLUTCH

CAREFUL WITH THAT MIC...

tabbed by dan (yellowledbetter_69@hotmail.co.uk)

standard tuning

|--------------------------------------|
|--------------------------------------|
|--------------------------------------|
|--------------------------------------|
|--------------------------------------|
|---6-4-6--6--6--4-6-4-6--6--6--4------|
intro part 1

|-----------6--------6----------6---------------|
|-----------------------------------------------|
|-----------------------------------------------|
|-----------------------------------------------|
|-----------------------------------------------|
|---6-4-6-----6--6------4-6-4-6----6--6--4------|
intro part 2

verse is same as intro part 1

|---------------------|
|---------------------|
|---------------------|
|---8--8-8---8--8-8---|
|---8--8-8---8--8-8---|
|---6--6-6---6--6-6---|
chorus    backed by second guitar  with pickscrape at beginning

|------------|
|------------|
|------------|
|---8--8-8---|
|---8--8-8---|
|---6--6-6---|
chorus  continued guitar 1  this is played in between solo parts

|-----------6--------------------------|---------------------|
|-------------9------9-----------------|---------------------|
|---------------8b10---8b10r8--6-8-----|---------------------|
|---------------------------------8-8--|---------------------|
|--------------------------------------|--6-4-6-4-------4----|
|--------------------------------------|----------6-4h6------|
chorus continued  guitar 2    first and 3rd times       2nd time

back to verse. there is a second guitar in the left channel, but it just seems to be 
muting.

the 2nd chorus is pretty much the same as the first. the rhythm part changes at the end, 
is the same chords as before

verse 3 is same again but with a second guitar playing this:

|---------------------------|
|---------------------------|
|---------6------5----------|
|---8-------------------8---|
|---------------------------|
|---------------------------|

after 3rd verse, chorus is played again, and is essentially the same as the other two.

outro is same as verse, second guitar puts a pickslide in there and has a few 
but nothing really worth tabbing.

that's about it. any comments, suggestions etc email me.
Tap to rate this tab
# A B C D E F G H I J K L M N O P Q R S T U V W X Y Z