Song name
# A B C D E F G H I J K L M N O P Q R S T U V W X Y Z

Clutch - Minotaur tab

Artist: Clutch
Album: Strange Cousins from the West
Song: Minotaur

Tuning: Standard

Intro

e|---|
B|---|
G|---|
D|-4-|
A|-4-|
E|-2-|

     3x
e|----------|-------|
B|----------|-------|
G|----------|-------|
D|-4---8--4-|-4---8-|
A|-4---8--4-|-4---8-|
E|-2---6--2-|-2---6-|

Meanwhile, another guitar plays:

e|-------------------------|
B|-------------------------|
G|-------2-------4-2-------|
D|-4-2-4---4---------4-2-4-|
A|-------------------------|
E|-------------------------|

Verse 1

             2x
e|--------------2------------------|
B|---------------------------------|
G|-555-555-5424-----555-555-5424---|
D|-------------------------------4-|
A|---------------------------------|
E|---------------------------------|
                 3x
e|-----------------------------------|
B|-----------------------------------|
G|-----------------------------------|
D|--------------4--------------------|
A|-333-333-3202-------333-333-3202---|
E|---------------------------------2-|

The other guitar (with some delay effect) does something like this:

e|--------------------|
B|-7~~----------------|
G|--------------------|
D|--------------------|
A|--------------9\----|
E|--------------------|


          2x
e|----------------------|
B|----------------------|
G|----------------------|
D|-4--------------------|
A|-4-------0-2-3---3202-|
E|-2---0-2--------------|

                           2x
e|------------------------------------------------------|
B|------------------------------------------------------|
G|------------------------------------------------------|
D|------------------------------------------------------|
A|--------------333-333-3202---------------333-333-3202-|
E|-2-22-22-22-2--------------2--22-22-22-2--------------|

          4x
e|----------------------|
B|----------------------|
G|----------------------|
D|-4--------------------|
A|-4-------0-2-3---3202-|
E|-2---0-2--------------|

Chorus

e|------------------------------------------------|
B|------------------------------------------------|
G|------------------------------------------------|
D|------------------------------------------------|
A|----------------------------------------------5-|
E|-0-10h12-10h12-0-0-3~--0-0-10h12-10h12-0-0-3~---|

e|---------------------|
B|---------------------|
G|---------------------|
D|---------------------|
A|---------------------|
E|-0-----35b-0----8-7-|

e|------------------------------------------------|
B|------------------------------------------------|
G|------------------------------------------------|
D|------------------------------------------------|
A|----------------------------------------------5-|
E|-0-10h12-10h12-0-0-3~--0-0-10h12-10h12-0-0-3~---|

e|---------------------|
B|---------------------|
G|---------------------|
D|---------------------|
A|---------------------|
E|-0-----35b-0----8-7-|

e|------------------------|
B|------------------------|
G|------------------------|
D|------------------------|
A|----------------------5-|
E|-0-10h12-10h12-0-0-3~---|


Intro part again,

e|---|
B|---|
G|---|
D|-4-|
A|-4-|
E|-2-|


     3x
e|----------|-------|
B|----------|-------|
G|----------|-------|
D|-4---8--4-|-4---8-|
A|-4---8--4-|-4---8-|
E|-2---6--2-|-2---6-|

Again, other guitar plays:

e|-------------------------|
B|-------------------------|
G|-------2-------4-2-------|
D|-4-2-4---4---------4-2-4-|
A|-------------------------|
E|-------------------------|

Verse 2
                        4x
e|------------------------------------------------------|
B|------------------------------------------------------|
G|------------------------------------------------------|
D|------------------------------------------------------|
A|--------------333-333-3202---------------333-333-3202-|
E|-2-22-22-22-2--------------2--22-22-22-2--------------|

Delay guitar part:

e|--------------------|
B|-7~~----------------|
G|--------------------|
D|--------------------|
A|--------------9\----|
E|--------------------|


             4x
e|----------------------|
B|----------------------|
G|----------------------|
D|-4--------------------|
A|-4-------0-2-3---3202-|
E|-2---0-2--------------|


Chorus
e|------------------------------------------------|
B|------------------------------------------------|
G|------------------------------------------------|
D|------------------------------------------------|
A|----------------------------------------------5-|
E|-0-10h12-10h12-0-0-3~--0-0-10h12-10h12-0-0-3~---|

e|---------------------|
B|---------------------|
G|---------------------|
D|---------------------|
A|---------------------|
E|-0-----35b-0----8-7-|

e|------------------------------------------------|
B|------------------------------------------------|
G|------------------------------------------------|
D|------------------------------------------------|
A|----------------------------------------------5-|
E|-0-10h12-10h12-0-0-3~--0-0-10h12-10h12-0-0-3~---|

e|---------------------------------------------|
B|---------------------------------------------|
G|---------------------------------------------|
D|---------------------------------------------|
A|---------------------------------------------|
E|-0-----35b-0----8-7-------------------------|

Play those parts of the chorus twice, and end with

e|------------------------|
B|------------------------|
G|------------------------|
D|------------------------|
A|----------------------5-|
E|-0-10h12-10h12-0-0-3~---|

Outro

e|---|
B|---|
G|---|
D|-4-|
A|-4-|
E|-2-|

     8x
e|----------|
B|----------|
G|----------|
D|-4---8--4-|
A|-4---8--4-|
E|-2---6--2-|

The other guitar plays:

e|-------------------------|
B|-------------------------|
G|-------2-------4-2-------|
D|-4-2-4---4---------4-2-4-|
A|-------------------------|
E|-------------------------|

Done.

Fairly simple, once you get the hang of it. Enjoy.

Tabbed by Thomas Rasmussen
Tap to rate this tab
# A B C D E F G H I J K L M N O P Q R S T U V W X Y Z