Song name
# A B C D E F G H I J K L M N O P Q R S T U V W X Y Z

Clutch - The Amazing Kreskin tab

Artist: Clutch
Album: Strange Cousins from the West
Song: The Amazing Kreskin

Amazing Band, Amazing Kreskin.

Tuning: Standard

Intro/Verse

e|----------|
B|----------|
G|----------|
D|-8---6--3-|
A|-8---6--3-|
E|-6---4--1-|

e|-----------------------------------|
B|-----------------------------------|
G|--------------------------------6--|
D|--------------------------------6--|
A|-4---4-4---6-7-8------4---4-4---4--|
E|---6-----6--------------6-----6----|

Wah guitar riff

e|------------------------------------------------|
B|------------------------------------------------|
G|------------------------------------------------|
D|-11----11-11----13-14-15------11----11-11----9^-|
A|----13-------13------------------13-------13-9^-|
E|---------------------------------------------9^-|

The 9^'s are probably wrong, but itís pretty unintelligible


Chorus

            4x                        4x
e|-------------------------|-----------------------|
B|-------------------------|-----------------------|
G|-------------------------|------9b---------------|
D|-------------------------|-----------------------|
A|-13-13---9--9------------|-8-8------4-4----------|
E|-11-11---------11-9-11-9-|-6-6-----------6-4-6-4-|

You can choose to leave out the 13ís and 8ís respectively, and only play the notes on 
E-string. Whatever tickles your fancy


Bridge

e|----------------------------|
B|----------------------------|
G|----------------------------|
D|-8-8---11-11---13-13----8-8-|
A|-8-8---11-11---13-13----8-8-|
E|-6-6----9--9---11-11----6-6-|

Third time around this little riff is also played.

e|---------|
B|---------|
G|---------|
D|-6-8-6-8-|
A|---------|
E|---------|

The song consists of the above. Piece them together and make me proud. Enjoy.


Tabbed by Thomas Rasmussen
Tap to rate this tab
# A B C D E F G H I J K L M N O P Q R S T U V W X Y Z