Song name
# A B C D E F G H I J K L M N O P Q R S T U V W X Y Z

Clutch - Struck Down tab

#----------------------------------PLEASE NOTE---------------------------------#
#This file is the author's own work and represents their interpretation of the #
#song. You may only use this file for private study, scholarship, or research. #
#------------------------------------------------------------------------------##

   "Struck Down" Words and Music By Clutch

   Tabbed by Ben Orchard


First ever tab. This is all of the song I can figure out, I just started playing along 
it and thought fuck, maybe I can finally contribute something... so here it is. If anyone 
help me with the solo or give me tips, email me at benorchard@hotmail.com.


 Main Riff:


   E----------------------------------------------------------------------------|
   B----------------------------------------------------------------------------|
   G----------------------------------------------------------------------------|
   D-------------3-2-0-2--0-----------3-2-0-2--0-----------3-2-0-2--0-----------|
   A---2-2-2-2-2------------2-2-2-2-2------------2-2-2-2-2------------2-2-2-2-2-|
   E----------------------------------------------------------------------------|


   E----------------------------------------------------------------------------|
   B----------------------------------------------------------------------------|
   G-3-2-0-2--0-----------3-2-0-2--0-----------3-2-0-2--0-----------3-2-0-2--0--|
   D------------2-2-2-2-2------------2-2-2-2-2------------2-2-2-2-2-------------|
   A----------------------------------------------------------------------------|
   E----------------------------------------------------------------------------|


   E----------|-------------|
   B----------|-------------|
   G----------|-------------|
   D-2-2-2-2-2|-3-2-0-2--0--|x2
   A----------|-------------|
   E----------|-------------|


Chorus:


   E----------------------------------------|
   B----------------------------------------|
   G-7--7--7-7-----------7--7--7-7----------|
   D--9--9--9-9-7--7--9---9--9--9-9-7--7--9-|x2
   A----------------------------------------|
   E----------------------------------------|


Solo:

missing.
Tap to rate this tab
# A B C D E F G H I J K L M N O P Q R S T U V W X Y Z