Song name
# A B C D E F G H I J K L M N O P Q R S T U V W X Y Z

Clutch - Whos Been Talking tab

CLUTCH-Who's been Talking

e -7--10--7--10---12-----------------------------------------------------------|
B -------------------------8--10\11--10--8-------8h9p8-------------------------|
G ---------------------9--------------------9-----------9----------------------|
D -----------------------------------------------------------------------------|
A -----------------------------------------------------------------------------|
E -----------------------------------------------------------------------------|

e ---7--10--7--10---12--------------------------------------------------------|
B ---------------------------8--10\11--10--8--10------------------------------|
G ----------------------9-----------------------------------------------------|
D ----------------------------------------------------------------------------|
A ----------------------------------------------------------------------------|
E ----------------------------------------------------------------------------|

e ---------------------------------------------------------------------------|
B ---------8---10--10\11/10---8----------------------------------------------|
G --7--9---------------------------9-----------------------------------------|
D ---------------------------------------------------------------------------|
A ---------------------------------------------------------------------------|
E ---------------------------------------------------------------------------|
Tap to rate this tab
# A B C D E F G H I J K L M N O P Q R S T U V W X Y Z