Song name
# A B C D E F G H I J K L M N O P Q R S T U V W X Y Z

Clutch - Circus Maximus chords

Circus Maximus
Clutch

Std tuning
the rest is fairly easy, but this part is quite interesting

---------------------------------------------------|
---------------------------------------------------|
---------------------------------------------------|
---------------------11--------12------------------|
---------7--------------11-------12----------------|
---9p7h9---9p7-9---9-------10------10--------------|

---------------------|
---------------------|
---------------------|
---------------------|
---------7-----------|
---9p7h9---9p7h9-----|

--/yeaf
Tap to rate this tab
# A B C D E F G H I J K L M N O P Q R S T U V W X Y Z