Song name
# A B C D E F G H I J K L M N O P Q R S T U V W X Y Z

Clutch - Abraham Lincoln tab

First Tab ever, going to finish the rest later:

Intro (00:17-00:34)

e --------------------------------------------------------|
B --------------------------------------------------------|
G --------------------------------------------------------|
D --------------------------------------------------------|
A 12-----12-----12-----10~--------------------------------|
D 12-----12-----12-----10~--------------------------------| X4

Intro Part 2 (00:35-00:51)

e ------------------------------------------------------|
B ------------------------------------------------------|
G ------10----------------------------------------------|
D 12----------8-----------------10----------------------|
A ---------------10------12-----------10---8------------|
E -----------------------------------------------12-----| X2
Tap to rate this tab
 
# A B C D E F G H I J K L M N O P Q R S T U V W X Y Z