Song name
# A B C D E F G H I J K L M N O P Q R S T U V W X Y Z

Clutch - What Would A Wookie Do tab

Guitar

Standard tuning
Watch out for time signature changes between 4/4 and 6/4
                                                      
Bass starts 
E||-----------------------|---------------------------------------|
B||-----------------------|---------------------------------------|
G||-----------------------|---------------------------------------|
D||-----------------------|---------------------------------------|
A||-----------------------|---------------------0-3p-0------------|
E||-----------------------|----------------------------3b---0-3b--|

                                                           
 						 
------------------------|----------------------||
------------------------|----------------------||
------------------------|------------7~~--5~~--||
--7--(5)\---------------|----------------------||
--7--(5)\---------------|----------------------||
--5--(5)\---------------|----------------------||


Riff 1 (intro)   
| |---------------------------------| |-------------------------------------------|
| |---------------------------------| |-------------------------------------------|
|4|---------------------------------|6|-------------------------------------------|
|4|---------------------------------|4|-------------------------------------------|
| |--0-------0-3p-0-3p-0-/5--3--0---| |--0---0-3p-0-3p-0-/5---3---0-3p-0----------|
| |---------------------------------| |----------------------------------3---0-3--|


           				     (end Riff 2)
| |-----------------------------|----------------------------|
| |-----------------------------|----------------------------|
|4|-----------------------------|-------------------7~~~~5~~~|x2
|4|-----------------------------|----------------------------|
| |--0---0-3p-0-3p-0-/5--3--0---|--0---0-3p-0-3p-0-----------|
| |-----------------------------|----------------------------|



Verse 1                         
Riff 2     
---------------------------------| |-------------------------------------------| |
---------------------------------| |-------------------------------------------| |
---------------------------------|6|-------------------------------------------|4|
---------------------------------|4|-------------------------------------------|4|
--0-------0-3p-0-3p-0-/5--3--0---| |--0---0-3p-0-3p-0-/5---3---0-3p-0----------| |
---------------------------------| |----------------------------------3---0-3--| |


           				     (end Riff 2)
-----------------------------|----------------------------|
-----------------------------|----------------------------|
-----------------------------|----------------------------|x2
-----------------------------|----------------------------|
--0---0-3p-0-3p-0-/5--3--0---|--0---0-3p-0-3p-0-/5----3---|
-----------------------------|----------------------------|

  


Pre-chorus                             
Riff 3							    
                          PM PM PM PM                    PM PM PM PM  
|----------------------------------------|------------------------------|
|----------------------------------------|------------------------------|
|----------------------------------------|------------------------------|
|--7--------(7)\--x----------------------|------------------------------|
|--7--------(7)\--x--3-------------------|----------3-------------------|
|--5--------(5)\--x-------5--4--3--3-----|---------------5--4--3--3-----|


						  (end Riff 3)
	       PM PM PM PM                    PM PM PM PM  
------------------------------|------------------------------|
------------------------------|------------------------------|
------------------------------|------------------------------|x2
------------------------------|------------------------------|
----------3-------------------|----------3-------------------|
---------------5--4--3--3-----|---------------5--4--3--3-----|



Chorus 
Riff 4						 (end Riff 4) 
--------------------------------|----------------------------|
--------------------------------|----------------------------|
--------------------------------|----------------------------|x3
--------------------------------|----------------5--7--------|
---------------------------3----|----------------3--5--------|
--5------5-5p-3-5--5p-3-5-------|--5---5-5p-3-5--------------|

					      (end chorus)
Riff 5					      (end Riff 5)
-------------------------------|-------------------------|
-------------------------------|-------------------------|
-------------------------------|-------------------------|
-------------------------------|-------------------------|
----------------------3p-0-0-0-|--6----5---5-5-3---------|
--5---5-5p-3-5--5---5----------|-------------------------|


Now play:

Riff 1 x1 (intro)
Riff 2 x2 (verse)
Riff 3 x2 (pre-chorus)
Then on to the bridge:
  

Bridge 

This part is 2 guitars. The 2nd guitar is the higher one with wah.
The PM refers to the lower guitar.

Riff 6				                (end Riff 6)

                  PM   PM PM PM    PM PM PM PM PM PM PM PM       
--------------------------------|--------------------------|
--------------------------------|--------------------------|
------------5--7--7br~~~~~~~~5--|--7-----7--7-----5~~~~~~--|x7
--5------7----------------------|--------------------------|
------------3--5--5----5--5--5--|--5--5--5--5--5--5--5--5--|
--3------5----------------------|--------------------------|


					      (end Bridge)
Riff 7					      (end Riff 7)
              PM   PM PM PM    PM PM PM PM 
----------------------------|-----------------------------|
----------------------------|-----------------------------|
--------5--7--7br~~~~~~~~5--|--7~~~~~7~~~~~---------------|
--5--7----------------------|-----------------------------|
--------3--5--5----5--5--5--|--5--5--5--5--5-3-0-5-3-0-5--|
--3--5----------------------|-----------------------------|


Now play:

Verse (riff 2)
Pre-chorus (riff 3)
Chorus (riff 4 & 5)

and end with G chord below:
 
           
-------------------|-------------------||
-------------------|-------------------||
-------------------|-------------------||
--5----------------|-(5)---------------||
--5----------------|-(5)---------------||
--3----------------|-(3)---------------||






Tablature Legend
----------------
L - tied note
x - dead note
g - grace note
(n) - ghost note
> - accentuded note
NH - natural harmonic
AH - artificial harmonic
TH - tapped harmonic
SH - semi harmonic
PH - pitch harmonic
h - hammer on
p - pull off
b - bend
br - bendRelease
pb - preBend
pbr - preBendRelease
brb - bendReleaseBend
\n/ - tremolo bar dip
\n - tremolo bar dive
-/n - tremolo bar Release up
/n\ - tremolo bar inverted dip
/n - tremolo bar return
-\n - tremolo bar Release down
S - shift slide
s - legato slide
/ -  slide into from below or out of upwards
\ -  slide into from above or out of downwards
~ - vibrato
W - wide vibrato
tr - trill
TP - tremolo picking
T - tapping
S - slap
P - pop
< - fade in
^ - brush up
v - brush down
Tap to rate this tab
 
# A B C D E F G H I J K L M N O P Q R S T U V W X Y Z