Song name
# A B C D E F G H I J K L M N O P Q R S T U V W X Y Z

Clutch - Burning Beard tab

Tuning: D A D G B E

Intro/Verse:
     |--3--|    |--3--|    |--3-----------------|
e-----------------------------------------------|
b-----------------------------------------------|
g-----------------------------------------------|
d-----------------------------------------------|
a-----------------------------------------------|
d-0--0h10h12-0--0h10h12-0--0h10h12-0-5-5-5p3----|

Chorus:
e----------------------------------------------|
b----------------------------------------------|
g----------------------------------------------|
d-3--------------------------------------------|
a---5--5-3--5-3----3-5-------------------------|
d----------------5-----------------------------|

After the solo, which I'm not tabbing, just play the chorus but with no rest in between 
Then:
e----------------------|
b-6--------------------|
g---7--5-7--5-7----5-7-|
d----------------5-----|
a----------------------|
d----------------------|

It then goes back to Verse, then play this part over and over until the finish:
     |--3--|
e------------|
b------------|
g------------|
d------------|
a------------|
d-0--0h10h12-|
Tap to rate this tab
# A B C D E F G H I J K L M N O P Q R S T U V W X Y Z