Song name
# A B C D E F G H I J K L M N O P Q R S T U V W X Y Z

Clutch - Let A Poor Man Be tab

-------------------------------------------------------------------------------
			     Let A Poor Man Be - CLUTCH
-------------------------------------------------------------------------------
Tabbed by: Snidgie
Email: scummy78@hotmail.com

Tuning: Open G

INTRO:

D|---------------------------------------------------------------------------|
B|---------------------------------------------------------------------------|
G|-------------------3-5-5-b-6-r-5-p-3---------------------------------------|
D|-3-5-5-5-3-0-----5-------------------5--3-5-5-5-3-0------------------------|
G|-------------3-0------------------------------------3-0-0-3-5-5-b-6-5-p-3-0|
D|---------------------------------------------------------------------------|

D|---------------------------------------------------------------------------|
B|---------------------------------------------------------------------------|
G|-------------------3-5-5-b-6-r-5-p-3---------------------------------------|
D|-3-5-5-5-3-0-----5-------------------5-------------------------------------|
G|-------------3-0-----------------------------------------------------------|
D|-----------------------------------------------2-2-2-2----2-3-3-3----3-----|

D|---------------------------------------------------------------------------|
B|---------------------------------------------------------------------------|
G|-------------------3-5-5-b-6-r-5-p-3---------------------------------------|
D|-3-5-5-5-3-0-----5-------------------5--3-5-5-5-3-0------------------------|
G|-------------3-0------------------------------------3-0-0-3-5-5-b-6-5-p-3-0|
D|---------------------------------------------------------------------------|

D|---------------------------------------------------------------------------|
B|---------------------------------------------------------------------------|
G|-------------------3-5-5-b-6-r-5-p-3---------------------------------------|
D|-3-5-5-5-3-0-----5-------------------5-------------------------------------|
G|-------------3-0-----------------------------------------------------------|
D|-----------------------------------------------2-2-2-2----2-3-3-3----3-----|

VERSE:

D|-----------------------------------------------------------------------------|
B|-----------------------------------------------------------------------------|
G|-----------------------------------------------------------------------------|
D|-----------------------------------------------------------------------------|
G-----3------3----------3-------3----------3-------3----------3-------3--------|
D-5------5------0-3-5-------5------0-3-5-------5------0-3-5-------5------------|

CHORUS:

D|-----------------------------------------------------------------------------|
B|-0--/--12--12-12-12--12-\-0--/--12--12-12-12---------------------------------|
G|-0--/--12--12-12-12--12-\-0--/--12--12-12-12----------5-b-6-r-5-p-3----------|
D|-0--/--12--12-12-12--12-\-0--/--12--12-12-12--3-5-5-3---------------5--------|
G|-0--/--12--12-12-12--12-\-0--/--12--12-12-12---------------------------------|
D|-----------------------------------------------------------------------------|


D|---------------------------------------------------------------------------|
B|---------------------------------------------------------------------------|
G|----------5-b-6-r-5-p-3-------------5-b-6-r-5-p-3----------5-b-6-r-5-p-3---|
D|-3--5--3----------------5---3-5-5-3---------------5--3-5-3---------------5-|
G|---------------------------------------------------------------------------|
D|---------------------------------------------------------------------------|

Lead into Solo

D|-----------------------------------------------------------------------------|
B|-----------------------------------------------------------------------------|
G|-----------------------------------------------------------------------------|
D|--------------3--------------------------------------------------------------|
G|--3--5--6--7-----------------------------------------------------------------|
D|-----------------2ó2-2-2---2-3-3-3-------------------------------------------|

Havenít bothered to work out the solo I usually just play my own. The bass just 
plays the verse riff.

After the solo you play the intro riff again but you play the first half 3 times.

Am working on the awesome slide guitar in the end but I doubt I am good enough to work it out.

End Bit:

D|-----------------------------------------------------------------------------|
B|-----------------------------------------------------------------------------|
G|-----------------------------------------------------------------------------|
D|-----------------------------------------------------------------------------|
G|-0-0-3-0-5-3-0--0-3-0-5-3-0--------------------------------------------------|
D|-----------------------------------------------------------------------------|

************************************

| /   slide up
| \   slide down
| h   hammer-on
| p   pull-off
| ~   vibrato
| +   harmonic
| x   Mute note
| b   Bend
| pb  Pre-bend
| br  Bend release
| pbr Pre-bend release
| brb Bend release bend

************************************
Tap to rate this tab
# A B C D E F G H I J K L M N O P Q R S T U V W X Y Z